  0
SECTION
  2
HEADER
  9
$ACADVER
  1
AC1015
  9
$ACADMAINTVER
 70
     6
  9
$DWGCODEPAGE
  3
ANSI_932
  9
$INSBASE
 10
0.0
 20
0.0
 30
0.0
  9
$EXTMIN
 10
0.0
 20
0.0
 30
0.0
  9
$EXTMAX
 10
594.0
 20
420.0
 30
0.0
  9
$LIMMIN
 10
0.0
 20
0.0
  9
$LIMMAX
 10
594.0
 20
420.0
  9
$ORTHOMODE
 70
     0
  9
$REGENMODE
 70
     1
  9
$FILLMODE
 70
     1
  9
$QTEXTMODE
 70
     0
  9
$MIRRTEXT
 70
     1
  9
$LTSCALE
 40
2.0
  9
$ATTMODE
 70
     1
  9
$TEXTSIZE
 40
2.5
  9
$TRACEWID
 40
1.0
  9
$TEXTSTYLE
  7
Standard
  9
$CLAYER
  8
0
  9
$CELTYPE
  6
ByLayer
  9
$CECOLOR
 62
   256
  9
$CELTSCALE
 40
1.0
  9
$DISPSILH
 70
     0
  9
$DIMSCALE
 40
1.0
  9
$DIMASZ
 40
2.5
  9
$DIMEXO
 40
0.625
  9
$DIMDLI
 40
3.75
  9
$DIMRND
 40
0.0
  9
$DIMDLE
 40
0.0
  9
$DIMEXE
 40
1.25
  9
$DIMTP
 40
0.0
  9
$DIMTM
 40
0.0
  9
$DIMTXT
 40
2.5
  9
$DIMCEN
 40
2.5
  9
$DIMTSZ
 40
0.0
  9
$DIMTOL
 70
     0
  9
$DIMLIM
 70
     0
  9
$DIMTIH
 70
     0
  9
$DIMTOH
 70
     0
  9
$DIMSE1
 70
     0
  9
$DIMSE2
 70
     0
  9
$DIMTAD
 70
     1
  9
$DIMZIN
 70
     8
  9
$DIMBLK
  1

  9
$DIMASO
 70
     1
  9
$DIMSHO
 70
     1
  9
$DIMPOST
  1

  9
$DIMAPOST
  1

  9
$DIMALT
 70
     0
  9
$DIMALTD
 70
     3
  9
$DIMALTF
 40
0.03937007874016
  9
$DIMLFAC
 40
1.0
  9
$DIMTOFL
 70
     1
  9
$DIMTVP
 40
0.0
  9
$DIMTIX
 70
     0
  9
$DIMSOXD
 70
     0
  9
$DIMSAH
 70
     0
  9
$DIMBLK1
  1

  9
$DIMBLK2
  1

  9
$DIMSTYLE
  2
ISO-25
  9
$DIMCLRD
 70
     0
  9
$DIMCLRE
 70
     0
  9
$DIMCLRT
 70
     0
  9
$DIMTFAC
 40
1.0
  9
$DIMGAP
 40
0.625
  9
$DIMJUST
 70
     0
  9
$DIMSD1
 70
     0
  9
$DIMSD2
 70
     0
  9
$DIMTOLJ
 70
     0
  9
$DIMTZIN
 70
     8
  9
$DIMALTZ
 70
     0
  9
$DIMALTTZ
 70
     0
  9
$DIMUPT
 70
     0
  9
$DIMDEC
 70
     2
  9
$DIMTDEC
 70
     2
  9
$DIMALTU
 70
     2
  9
$DIMALTTD
 70
     3
  9
$DIMTXSTY
  7
Standard
  9
$DIMAUNIT
 70
     0
  9
$DIMADEC
 70
     0
  9
$DIMALTRND
 40
0.0
  9
$DIMAZIN
 70
     0
  9
$DIMDSEP
 70
    46
  9
$DIMATFIT
 70
     3
  9
$DIMFRAC
 70
     0
  9
$DIMLDRBLK
  1

  9
$DIMLUNIT
 70
     2
  9
$DIMLWD
 70
    -2
  9
$DIMLWE
 70
    -2
  9
$DIMTMOVE
 70
     0
  9
$LUNITS
 70
     2
  9
$LUPREC
 70
     4
  9
$SKETCHINC
 40
1.0
  9
$FILLETRAD
 40
10.0
  9
$AUNITS
 70
     0
  9
$AUPREC
 70
     0
  9
$MENU
  1
.
  9
$ELEVATION
 40
0.0
  9
$PELEVATION
 40
0.0
  9
$THICKNESS
 40
0.0
  9
$LIMCHECK
 70
     0
  9
$CHAMFERA
 40
10.0
  9
$CHAMFERB
 40
10.0
  9
$CHAMFERC
 40
20.0
  9
$CHAMFERD
 40
0.0
  9
$SKPOLY
 70
     0
  9
$TDCREATE
 40
2458235.000000
  9
$TDUCREATE
 40
0.000000000
  9
$TDUPDATE
 40
2458235.000000
  9
$TDUUPDATE
 40
2458235.000000
  9
$TDINDWG
 40
0.0
  9
$TDUSRTIMER
 40
0.0
  9
$USRTIMER
 70
     1
  9
$ANGBASE
 50
0.0
  9
$ANGDIR
 70
     0
  9
$PDMODE
 70
     0
  9
$PDSIZE
 40
0.0
  9
$PLINEWID
 40
0.0
  9
$SPLFRAME
 70
     0
  9
$SPLINETYPE
 70
     6
  9
$SPLINESEGS
 70
     8
  9
$HANDSEED
  5
0259
  9
$SURFTAB1
 70
     6
  9
$SURFTAB2
 70
     6
  9
$SURFTYPE
 70
     6
  9
$SURFU
 70
     6
  9
$SURFV
 70
     6
  9
$UCSBASE
  2

  9
$UCSNAME
  2

  9
$UCSORG
 10
0.0
 20
0.0
 30
0.0
  9
$UCSXDIR
 10
1.0
 20
0.0
 30
0.0
  9
$UCSYDIR
 10
0.0
 20
1.0
 30
0.0
  9
$UCSORTHOREF
  2

  9
$UCSORTHOVIEW
 70
     0
  9
$UCSORGTOP
 10
0.0
 20
0.0
 30
0.0
  9
$UCSORGBOTTOM
 10
0.0
 20
0.0
 30
0.0
  9
$UCSORGLEFT
 10
0.0
 20
0.0
 30
0.0
  9
$UCSORGRIGHT
 10
0.0
 20
0.0
 30
0.0
  9
$UCSORGFRONT
 10
0.0
 20
0.0
 30
0.0
  9
$UCSORGBACK
 10
0.0
 20
0.0
 30
0.0
  9
$PUCSBASE
  2

  9
$PUCSNAME
  2

  9
$PUCSORG
 10
0.0
 20
0.0
 30
0.0
  9
$PUCSXDIR
 10
1.0
 20
0.0
 30
0.0
  9
$PUCSYDIR
 10
0.0
 20
1.0
 30
0.0
  9
$PUCSORTHOREF
  2

  9
$PUCSORTHOVIEW
 70
     0
  9
$PUCSORGTOP
 10
0.0
 20
0.0
 30
0.0
  9
$PUCSORGBOTTOM
 10
0.0
 20
0.0
 30
0.0
  9
$PUCSORGLEFT
 10
0.0
 20
0.0
 30
0.0
  9
$PUCSORGRIGHT
 10
0.0
 20
0.0
 30
0.0
  9
$PUCSORGFRONT
 10
0.0
 20
0.0
 30
0.0
  9
$PUCSORGBACK
 10
0.0
 20
0.0
 30
0.0
  9
$USERI1
 70
     0
  9
$USERI2
 70
     0
  9
$USERI3
 70
     0
  9
$USERI4
 70
     0
  9
$USERI5
 70
     0
  9
$USERR1
 40
0.0
  9
$USERR2
 40
0.0
  9
$USERR3
 40
0.0
  9
$USERR4
 40
0.0
  9
$USERR5
 40
0.0
  9
$WORLDVIEW
 70
     1
  9
$SHADEDGE
 70
     3
  9
$SHADEDIF
 70
    70
  9
$TILEMODE
 70
     1
  9
$MAXACTVP
 70
    64
  9
$PINSBASE
 10
0.0
 20
0.0
 30
0.0
  9
$PLIMCHECK
 70
     0
  9
$PEXTMIN
 10
1.000000E+20
 20
1.000000E+20
 30
1.000000E+20
  9
$PEXTMAX
 10
-1.000000E+20
 20
-1.000000E+20
 30
-1.000000E+20
  9
$PLIMMIN
 10
0.0
 20
0.0
  9
$PLIMMAX
 10
0.0
 20
0.0
  9
$UNITMODE
 70
     0
  9
$VISRETAIN
 70
     0
  9
$PLINEGEN
 70
     0
  9
$PSLTSCALE
 70
     1
  9
$TREEDEPTH
 70
  3020
  9
$CMLSTYLE
  2
STANDARD
  9
$CMLJUST
 70
     0
  9
$CMLSCALE
 40
20.0
  9
$PROXYGRAPHICS
 70
     1
  9
$MEASUREMENT
 70
     1
  9
$CELWEIGHT
370
    -1
  9
$ENDCAPS
280
     0
  9
$JOINSTYLE
280
     0
  9
$LWDISPLAY
290
     0
  9
$INSUNITS
 70
     4
  9
$HYPERLINKBASE
  1

  9
$STYLESHEET
  1

  9
$XEDIT
290
     1
  9
$CEPSNTYPE
380
     0
  9
$PSTYLEMODE
290
     1
  9
$FINGERPRINTGUID
  2
{A6299912-3A39-46B2-A368-BF770D403651}
  9
$VERSIONGUID
  2
{55BEA193-1EC6-A670-03E0-3758B7C8B874}
  9
$EXTNAMES
290
     1
  9
$PSVPSCALE
 40
0.0
  0
ENDSEC
  0
SECTION
  2
CLASSES
  0
ENDSEC
  0
SECTION
  2
TABLES
  0
TABLE
  2
VPORT
  5
8
330
0
100
AcDbSymbolTable
 70
     3
  0
VPORT
  5
29
330
8
100
AcDbSymbolTableRecord
100
AcDbViewportTableRecord
  2
*Active
 70
     0
 10
0.0
 20
0.0
 11
1.0
 21
1.0
 12
297.0
 22
210.0
 13
0.0
 23
0.0
 14
10.0
 24
10.0
 15
0.0
 25
0.0
 16
0.0
 26
0.0
 36
1.0
 17
0.0
 27
0.0
 37
0.0
 40
420.0
 41
1.414285714
 42
50.0
 43
0.0
 44
0.0
 50
0.0
 51
0.0
 71
     0
 72
  1000
 73
     1
 74
     3
 75
     0
 76
     0
 77
     0
 78
     0
281
     0
 65
     0
110
0.0
120
0.0
130
0.0
111
1.0
121
0.0
131
0.0
112
0.0
122
1.0
132
0.0
 79
     0
146
0.0
  0
ENDTAB
  0
TABLE
  2
LTYPE
  5
5
330
0
100
AcDbSymbolTable
 70
     6
  0
LTYPE
  5
14
330
5
100
AcDbSymbolTableRecord
100
AcDbLinetypeTableRecord
  2
ByBlock
 70
     0
  3

 72
    65
 73
     0
 40
0.0
  0
LTYPE
  5
15
330
5
100
AcDbSymbolTableRecord
100
AcDbLinetypeTableRecord
  2
ByLayer
 70
     0
  3

 72
    65
 73
     0
 40
0.0
  0
LTYPE
  5
16
330
5
100
AcDbSymbolTableRecord
100
AcDbLinetypeTableRecord
  2
Continuous
 70
     0
  3
Solid line
 72
    65
 73
     0
 40
0.0
  0
LTYPE
  5
BC
330
5
100
AcDbSymbolTableRecord
100
AcDbLinetypeTableRecord
  2
LTYPE1
 70
     0
  3
CENTER
 72
    65
 73
     4
 40
7.5
 49
5.25
 74
     0
 49
-0.75
 74
     0
 49
0.75
 74
     0
 49
-0.75
 74
     0
  0
LTYPE
  5
18A
330
5
100
AcDbSymbolTableRecord
100
AcDbLinetypeTableRecord
  2
LTYPE2
 70
     0
  3
PHANTOM
 72
    65
 73
     6
 40
7.5
 49
5.625
 74
     0
 49
-0.375
 74
     0
 49
0.375
 74
     0
 49
-0.375
 74
     0
 49
0.375
 74
     0
 49
-0.375
 74
     0
  0
LTYPE
  5
24F
330
5
100
AcDbSymbolTableRecord
100
AcDbLinetypeTableRecord
  2
LTYPE3
 70
     0
  3
HIDDEN
 72
    65
 73
     2
 40
1.5
 49
0.9
 74
     0
 49
-0.6
 74
     0
  0
ENDTAB
  0
TABLE
  2
LAYER
  5
2
330
0
100
AcDbSymbolTable
 70
   128
  0
LAYER
  5
10
330
2
100
AcDbSymbolTableRecord
100
AcDbLayerTableRecord
  2
0
 70
     0
 62
     7
  6
Continuous
290
     1
370
    -3
390
F
  0
LAYER
  5
2A
330
2
100
AcDbSymbolTableRecord
100
AcDbLayerTableRecord
  2
2
 70
     0
 62
     7
  6
Continuous
290
     1
370
    -3
390
F
  0
LAYER
  5
2B
330
2
100
AcDbSymbolTableRecord
100
AcDbLayerTableRecord
  2
3
 70
     0
 62
     7
  6
Continuous
290
     1
370
    -3
390
F
  0
LAYER
  5
2C
330
2
100
AcDbSymbolTableRecord
100
AcDbLayerTableRecord
  2
4
 70
     0
 62
     7
  6
Continuous
290
     1
370
    -3
390
F
  0
LAYER
  5
2D
330
2
100
AcDbSymbolTableRecord
100
AcDbLayerTableRecord
  2
5
 70
     0
 62
     7
  6
Continuous
290
     1
370
    -3
390
F
  0
LAYER
  5
2E
330
2
100
AcDbSymbolTableRecord
100
AcDbLayerTableRecord
  2
6
 70
     0
 62
     7
  6
Continuous
290
     1
370
    -3
390
F
  0
LAYER
  5
2F
330
2
100
AcDbSymbolTableRecord
100
AcDbLayerTableRecord
  2
7
 70
     0
 62
     7
  6
Continuous
290
     1
370
    -3
390
F
  0
LAYER
  5
30
330
2
100
AcDbSymbolTableRecord
100
AcDbLayerTableRecord
  2
8
 70
     0
 62
     7
  6
Continuous
290
     1
370
    -3
390
F
  0
LAYER
  5
31
330
2
100
AcDbSymbolTableRecord
100
AcDbLayerTableRecord
  2
9
 70
     0
 62
     7
  6
Continuous
290
     1
370
    -3
390
F
  0
LAYER
  5
32
330
2
100
AcDbSymbolTableRecord
100
AcDbLayerTableRecord
  2
10
 70
     0
 62
     7
  6
Continuous
290
     1
370
    -3
390
F
  0
LAYER
  5
33
330
2
100
AcDbSymbolTableRecord
100
AcDbLayerTableRecord
  2
11
 70
     0
 62
     7
  6
Continuous
290
     1
370
    -3
390
F
  0
LAYER
  5
34
330
2
100
AcDbSymbolTableRecord
100
AcDbLayerTableRecord
  2
12
 70
     0
 62
     7
  6
Continuous
290
     1
370
    -3
390
F
  0
LAYER
  5
35
330
2
100
AcDbSymbolTableRecord
100
AcDbLayerTableRecord
  2
13
 70
     0
 62
     7
  6
Continuous
290
     1
370
    -3
390
F
  0
LAYER
  5
36
330
2
100
AcDbSymbolTableRecord
100
AcDbLayerTableRecord
  2
14
 70
     0
 62
     7
  6
Continuous
290
     1
370
    -3
390
F
  0
LAYER
  5
37
330
2
100
AcDbSymbolTableRecord
100
AcDbLayerTableRecord
  2
15
 70
     0
 62
     7
  6
Continuous
290
     1
370
    -3
390
F
  0
LAYER
  5
38
330
2
100
AcDbSymbolTableRecord
100
AcDbLayerTableRecord
  2
16
 70
     0
 62
     7
  6
Continuous
290
     1
370
    -3
390
F
  0
LAYER
  5
39
330
2
100
AcDbSymbolTableRecord
100
AcDbLayerTableRecord
  2
17
 70
     0
 62
     7
  6
Continuous
290
     1
370
    -3
390
F
  0
LAYER
  5
3A
330
2
100
AcDbSymbolTableRecord
100
AcDbLayerTableRecord
  2
18
 70
     0
 62
     7
  6
Continuous
290
     1
370
    -3
390
F
  0
LAYER
  5
3B
330
2
100
AcDbSymbolTableRecord
100
AcDbLayerTableRecord
  2
19
 70
     0
 62
     7
  6
Continuous
290
     1
370
    -3
390
F
  0
LAYER
  5
3C
330
2
100
AcDbSymbolTableRecord
100
AcDbLayerTableRecord
  2
20
 70
     0
 62
     7
  6
Continuous
290
     1
370
    -3
390
F
  0
LAYER
  5
3D
330
2
100
AcDbSymbolTableRecord
100
AcDbLayerTableRecord
  2
21
 70
     0
 62
     7
  6
Continuous
290
     1
370
    -3
390
F
  0
LAYER
  5
3E
330
2
100
AcDbSymbolTableRecord
100
AcDbLayerTableRecord
  2
22
 70
     0
 62
     7
  6
Continuous
290
     1
370
    -3
390
F
  0
LAYER
  5
3F
330
2
100
AcDbSymbolTableRecord
100
AcDbLayerTableRecord
  2
23
 70
     0
 62
     7
  6
Continuous
290
     1
370
    -3
390
F
  0
LAYER
  5
40
330
2
100
AcDbSymbolTableRecord
100
AcDbLayerTableRecord
  2
24
 70
     0
 62
     7
  6
Continuous
290
     1
370
    -3
390
F
  0
LAYER
  5
41
330
2
100
AcDbSymbolTableRecord
100
AcDbLayerTableRecord
  2
25
 70
     0
 62
     7
  6
Continuous
290
     1
370
    -3
390
F
  0
LAYER
  5
42
330
2
100
AcDbSymbolTableRecord
100
AcDbLayerTableRecord
  2
26
 70
     0
 62
     7
  6
Continuous
290
     1
370
    -3
390
F
  0
LAYER
  5
43
330
2
100
AcDbSymbolTableRecord
100
AcDbLayerTableRecord
  2
27
 70
     0
 62
     7
  6
Continuous
290
     1
370
    -3
390
F
  0
LAYER
  5
44
330
2
100
AcDbSymbolTableRecord
100
AcDbLayerTableRecord
  2
28
 70
     0
 62
     7
  6
Continuous
290
     1
370
    -3
390
F
  0
LAYER
  5
45
330
2
100
AcDbSymbolTableRecord
100
AcDbLayerTableRecord
  2
29
 70
     0
 62
     7
  6
Continuous
290
     1
370
    -3
390
F
  0
LAYER
  5
46
330
2
100
AcDbSymbolTableRecord
100
AcDbLayerTableRecord
  2
30
 70
     0
 62
     7
  6
Continuous
290
     1
370
    -3
390
F
  0
LAYER
  5
47
330
2
100
AcDbSymbolTableRecord
100
AcDbLayerTableRecord
  2
31
 70
     0
 62
     7
  6
Continuous
290
     1
370
    -3
390
F
  0
LAYER
  5
48
330
2
100
AcDbSymbolTableRecord
100
AcDbLayerTableRecord
  2
32
 70
     0
 62
     7
  6
Continuous
290
     1
370
    -3
390
F
  0
LAYER
  5
49
330
2
100
AcDbSymbolTableRecord
100
AcDbLayerTableRecord
  2
33
 70
     0
 62
     7
  6
Continuous
290
     1
370
    -3
390
F
  0
LAYER
  5
4A
330
2
100
AcDbSymbolTableRecord
100
AcDbLayerTableRecord
  2
34
 70
     0
 62
     7
  6
Continuous
290
     1
370
    -3
390
F
  0
LAYER
  5
4B
330
2
100
AcDbSymbolTableRecord
100
AcDbLayerTableRecord
  2
35
 70
     0
 62
     7
  6
Continuous
290
     1
370
    -3
390
F
  0
LAYER
  5
4C
330
2
100
AcDbSymbolTableRecord
100
AcDbLayerTableRecord
  2
36
 70
     0
 62
     7
  6
Continuous
290
     1
370
    -3
390
F
  0
LAYER
  5
4D
330
2
100
AcDbSymbolTableRecord
100
AcDbLayerTableRecord
  2
37
 70
     0
 62
     7
  6
Continuous
290
     1
370
    -3
390
F
  0
LAYER
  5
4E
330
2
100
AcDbSymbolTableRecord
100
AcDbLayerTableRecord
  2
38
 70
     0
 62
     7
  6
Continuous
290
     1
370
    -3
390
F
  0
LAYER
  5
4F
330
2
100
AcDbSymbolTableRecord
100
AcDbLayerTableRecord
  2
39
 70
     0
 62
     7
  6
Continuous
290
     1
370
    -3
390
F
  0
LAYER
  5
50
330
2
100
AcDbSymbolTableRecord
100
AcDbLayerTableRecord
  2
40
 70
     0
 62
     7
  6
Continuous
290
     1
370
    -3
390
F
  0
LAYER
  5
51
330
2
100
AcDbSymbolTableRecord
100
AcDbLayerTableRecord
  2
41
 70
     0
 62
     7
  6
Continuous
290
     1
370
    -3
390
F
  0
LAYER
  5
52
330
2
100
AcDbSymbolTableRecord
100
AcDbLayerTableRecord
  2
42
 70
     0
 62
     7
  6
Continuous
290
     1
370
    -3
390
F
  0
LAYER
  5
53
330
2
100
AcDbSymbolTableRecord
100
AcDbLayerTableRecord
  2
43
 70
     0
 62
     7
  6
Continuous
290
     1
370
    -3
390
F
  0
LAYER
  5
54
330
2
100
AcDbSymbolTableRecord
100
AcDbLayerTableRecord
  2
44
 70
     0
 62
     7
  6
Continuous
290
     1
370
    -3
390
F
  0
LAYER
  5
55
330
2
100
AcDbSymbolTableRecord
100
AcDbLayerTableRecord
  2
45
 70
     0
 62
     7
  6
Continuous
290
     1
370
    -3
390
F
  0
LAYER
  5
56
330
2
100
AcDbSymbolTableRecord
100
AcDbLayerTableRecord
  2
46
 70
     0
 62
     7
  6
Continuous
290
     1
370
    -3
390
F
  0
LAYER
  5
57
330
2
100
AcDbSymbolTableRecord
100
AcDbLayerTableRecord
  2
47
 70
     0
 62
     7
  6
Continuous
290
     1
370
    -3
390
F
  0
LAYER
  5
58
330
2
100
AcDbSymbolTableRecord
100
AcDbLayerTableRecord
  2
48
 70
     0
 62
     7
  6
Continuous
290
     1
370
    -3
390
F
  0
LAYER
  5
59
330
2
100
AcDbSymbolTableRecord
100
AcDbLayerTableRecord
  2
49
 70
     0
 62
     7
  6
Continuous
290
     1
370
    -3
390
F
  0
LAYER
  5
5A
330
2
100
AcDbSymbolTableRecord
100
AcDbLayerTableRecord
  2
50
 70
     0
 62
     7
  6
Continuous
290
     1
370
    -3
390
F
  0
LAYER
  5
5B
330
2
100
AcDbSymbolTableRecord
100
AcDbLayerTableRecord
  2
51
 70
     0
 62
     7
  6
Continuous
290
     1
370
    -3
390
F
  0
LAYER
  5
5C
330
2
100
AcDbSymbolTableRecord
100
AcDbLayerTableRecord
  2
52
 70
     0
 62
     7
  6
Continuous
290
     1
370
    -3
390
F
  0
LAYER
  5
5D
330
2
100
AcDbSymbolTableRecord
100
AcDbLayerTableRecord
  2
53
 70
     0
 62
     7
  6
Continuous
290
     1
370
    -3
390
F
  0
LAYER
  5
5E
330
2
100
AcDbSymbolTableRecord
100
AcDbLayerTableRecord
  2
54
 70
     0
 62
     7
  6
Continuous
290
     1
370
    -3
390
F
  0
LAYER
  5
5F
330
2
100
AcDbSymbolTableRecord
100
AcDbLayerTableRecord
  2
55
 70
     0
 62
     7
  6
Continuous
290
     1
370
    -3
390
F
  0
LAYER
  5
60
330
2
100
AcDbSymbolTableRecord
100
AcDbLayerTableRecord
  2
56
 70
     0
 62
     7
  6
Continuous
290
     1
370
    -3
390
F
  0
LAYER
  5
61
330
2
100
AcDbSymbolTableRecord
100
AcDbLayerTableRecord
  2
57
 70
     0
 62
     7
  6
Continuous
290
     1
370
    -3
390
F
  0
LAYER
  5
62
330
2
100
AcDbSymbolTableRecord
100
AcDbLayerTableRecord
  2
58
 70
     0
 62
     7
  6
Continuous
290
     1
370
    -3
390
F
  0
LAYER
  5
63
330
2
100
AcDbSymbolTableRecord
100
AcDbLayerTableRecord
  2
59
 70
     0
 62
     7
  6
Continuous
290
     1
370
    -3
390
F
  0
LAYER
  5
64
330
2
100
AcDbSymbolTableRecord
100
AcDbLayerTableRecord
  2
60
 70
     0
 62
     7
  6
Continuous
290
     1
370
    -3
390
F
  0
LAYER
  5
65
330
2
100
AcDbSymbolTableRecord
100
AcDbLayerTableRecord
  2
61
 70
     0
 62
     7
  6
Continuous
290
     1
370
    -3
390
F
  0
LAYER
  5
66
330
2
100
AcDbSymbolTableRecord
100
AcDbLayerTableRecord
  2
62
 70
     0
 62
     7
  6
Continuous
290
     1
370
    -3
390
F
  0
LAYER
  5
67
330
2
100
AcDbSymbolTableRecord
100
AcDbLayerTableRecord
  2
63
 70
     0
 62
     7
  6
Continuous
290
     1
370
    -3
390
F
  0
LAYER
  5
68
330
2
100
AcDbSymbolTableRecord
100
AcDbLayerTableRecord
  2
64
 70
     0
 62
     7
  6
Continuous
290
     1
370
    -3
390
F
  0
LAYER
  5
69
330
2
100
AcDbSymbolTableRecord
100
AcDbLayerTableRecord
  2
65
 70
     0
 62
     7
  6
Continuous
290
     1
370
    -3
390
F
  0
LAYER
  5
6A
330
2
100
AcDbSymbolTableRecord
100
AcDbLayerTableRecord
  2
66
 70
     0
 62
     7
  6
Continuous
290
     1
370
    -3
390
F
  0
LAYER
  5
6B
330
2
100
AcDbSymbolTableRecord
100
AcDbLayerTableRecord
  2
67
 70
     0
 62
     7
  6
Continuous
290
     1
370
    -3
390
F
  0
LAYER
  5
6C
330
2
100
AcDbSymbolTableRecord
100
AcDbLayerTableRecord
  2
68
 70
     0
 62
     7
  6
Continuous
290
     1
370
    -3
390
F
  0
LAYER
  5
6D
330
2
100
AcDbSymbolTableRecord
100
AcDbLayerTableRecord
  2
69
 70
     0
 62
     7
  6
Continuous
290
     1
370
    -3
390
F
  0
LAYER
  5
6E
330
2
100
AcDbSymbolTableRecord
100
AcDbLayerTableRecord
  2
70
 70
     0
 62
     7
  6
Continuous
290
     1
370
    -3
390
F
  0
LAYER
  5
6F
330
2
100
AcDbSymbolTableRecord
100
AcDbLayerTableRecord
  2
71
 70
     0
 62
     7
  6
Continuous
290
     1
370
    -3
390
F
  0
LAYER
  5
70
330
2
100
AcDbSymbolTableRecord
100
AcDbLayerTableRecord
  2
72
 70
     0
 62
     7
  6
Continuous
290
     1
370
    -3
390
F
  0
LAYER
  5
71
330
2
100
AcDbSymbolTableRecord
100
AcDbLayerTableRecord
  2
73
 70
     0
 62
     7
  6
Continuous
290
     1
370
    -3
390
F
  0
LAYER
  5
72
330
2
100
AcDbSymbolTableRecord
100
AcDbLayerTableRecord
  2
74
 70
     0
 62
     7
  6
Continuous
290
     1
370
    -3
390
F
  0
LAYER
  5
73
330
2
100
AcDbSymbolTableRecord
100
AcDbLayerTableRecord
  2
75
 70
     0
 62
     7
  6
Continuous
290
     1
370
    -3
390
F
  0
LAYER
  5
74
330
2
100
AcDbSymbolTableRecord
100
AcDbLayerTableRecord
  2
76
 70
     0
 62
     7
  6
Continuous
290
     1
370
    -3
390
F
  0
LAYER
  5
75
330
2
100
AcDbSymbolTableRecord
100
AcDbLayerTableRecord
  2
77
 70
     0
 62
     7
  6
Continuous
290
     1
370
    -3
390
F
  0
LAYER
  5
76
330
2
100
AcDbSymbolTableRecord
100
AcDbLayerTableRecord
  2
78
 70
     0
 62
     7
  6
Continuous
290
     1
370
    -3
390
F
  0
LAYER
  5
77
330
2
100
AcDbSymbolTableRecord
100
AcDbLayerTableRecord
  2
79
 70
     0
 62
     7
  6
Continuous
290
     1
370
    -3
390
F
  0
LAYER
  5
78
330
2
100
AcDbSymbolTableRecord
100
AcDbLayerTableRecord
  2
80
 70
     0
 62
     7
  6
Continuous
290
     1
370
    -3
390
F
  0
LAYER
  5
79
330
2
100
AcDbSymbolTableRecord
100
AcDbLayerTableRecord
  2
81
 70
     0
 62
     7
  6
Continuous
290
     1
370
    -3
390
F
  0
LAYER
  5
7A
330
2
100
AcDbSymbolTableRecord
100
AcDbLayerTableRecord
  2
82
 70
     0
 62
     7
  6
Continuous
290
     1
370
    -3
390
F
  0
LAYER
  5
7B
330
2
100
AcDbSymbolTableRecord
100
AcDbLayerTableRecord
  2
83
 70
     0
 62
     7
  6
Continuous
290
     1
370
    -3
390
F
  0
LAYER
  5
7C
330
2
100
AcDbSymbolTableRecord
100
AcDbLayerTableRecord
  2
84
 70
     0
 62
     7
  6
Continuous
290
     1
370
    -3
390
F
  0
LAYER
  5
7D
330
2
100
AcDbSymbolTableRecord
100
AcDbLayerTableRecord
  2
85
 70
     0
 62
     7
  6
Continuous
290
     1
370
    -3
390
F
  0
LAYER
  5
7E
330
2
100
AcDbSymbolTableRecord
100
AcDbLayerTableRecord
  2
86
 70
     0
 62
     7
  6
Continuous
290
     1
370
    -3
390
F
  0
LAYER
  5
7F
330
2
100
AcDbSymbolTableRecord
100
AcDbLayerTableRecord
  2
87
 70
     0
 62
     7
  6
Continuous
290
     1
370
    -3
390
F
  0
LAYER
  5
80
330
2
100
AcDbSymbolTableRecord
100
AcDbLayerTableRecord
  2
88
 70
     0
 62
     7
  6
Continuous
290
     1
370
    -3
390
F
  0
LAYER
  5
81
330
2
100
AcDbSymbolTableRecord
100
AcDbLayerTableRecord
  2
89
 70
     0
 62
     7
  6
Continuous
290
     1
370
    -3
390
F
  0
LAYER
  5
82
330
2
100
AcDbSymbolTableRecord
100
AcDbLayerTableRecord
  2
90
 70
     0
 62
     7
  6
Continuous
290
     1
370
    -3
390
F
  0
LAYER
  5
83
330
2
100
AcDbSymbolTableRecord
100
AcDbLayerTableRecord
  2
91
 70
     0
 62
     7
  6
Continuous
290
     1
370
    -3
390
F
  0
LAYER
  5
84
330
2
100
AcDbSymbolTableRecord
100
AcDbLayerTableRecord
  2
92
 70
     0
 62
     7
  6
Continuous
290
     1
370
    -3
390
F
  0
LAYER
  5
85
330
2
100
AcDbSymbolTableRecord
100
AcDbLayerTableRecord
  2
93
 70
     0
 62
     7
  6
Continuous
290
     1
370
    -3
390
F
  0
LAYER
  5
86
330
2
100
AcDbSymbolTableRecord
100
AcDbLayerTableRecord
  2
94
 70
     0
 62
     7
  6
Continuous
290
     1
370
    -3
390
F
  0
LAYER
  5
87
330
2
100
AcDbSymbolTableRecord
100
AcDbLayerTableRecord
  2
95
 70
     0
 62
     7
  6
Continuous
290
     1
370
    -3
390
F
  0
LAYER
  5
88
330
2
100
AcDbSymbolTableRecord
100
AcDbLayerTableRecord
  2
96
 70
     0
 62
     7
  6
Continuous
290
     1
370
    -3
390
F
  0
LAYER
  5
89
330
2
100
AcDbSymbolTableRecord
100
AcDbLayerTableRecord
  2
97
 70
     0
 62
     7
  6
Continuous
290
     1
370
    -3
390
F
  0
LAYER
  5
8A
330
2
100
AcDbSymbolTableRecord
100
AcDbLayerTableRecord
  2
98
 70
     0
 62
     7
  6
Continuous
290
     1
370
    -3
390
F
  0
LAYER
  5
8B
330
2
100
AcDbSymbolTableRecord
100
AcDbLayerTableRecord
  2
99
 70
     0
 62
     7
  6
Continuous
290
     1
370
    -3
390
F
  0
LAYER
  5
8C
330
2
100
AcDbSymbolTableRecord
100
AcDbLayerTableRecord
  2
100
 70
     0
 62
     7
  6
Continuous
290
     1
370
    -3
390
F
  0
LAYER
  5
8D
330
2
100
AcDbSymbolTableRecord
100
AcDbLayerTableRecord
  2
101
 70
     0
 62
     7
  6
Continuous
290
     1
370
    -3
390
F
  0
LAYER
  5
8E
330
2
100
AcDbSymbolTableRecord
100
AcDbLayerTableRecord
  2
102
 70
     0
 62
     7
  6
Continuous
290
     1
370
    -3
390
F
  0
LAYER
  5
8F
330
2
100
AcDbSymbolTableRecord
100
AcDbLayerTableRecord
  2
103
 70
     0
 62
     7
  6
Continuous
290
     1
370
    -3
390
F
  0
LAYER
  5
90
330
2
100
AcDbSymbolTableRecord
100
AcDbLayerTableRecord
  2
104
 70
     0
 62
     7
  6
Continuous
290
     1
370
    -3
390
F
  0
LAYER
  5
91
330
2
100
AcDbSymbolTableRecord
100
AcDbLayerTableRecord
  2
105
 70
     0
 62
     7
  6
Continuous
290
     1
370
    -3
390
F
  0
LAYER
  5
92
330
2
100
AcDbSymbolTableRecord
100
AcDbLayerTableRecord
  2
106
 70
     0
 62
     7
  6
Continuous
290
     1
370
    -3
390
F
  0
LAYER
  5
93
330
2
100
AcDbSymbolTableRecord
100
AcDbLayerTableRecord
  2
107
 70
     0
 62
     7
  6
Continuous
290
     1
370
    -3
390
F
  0
LAYER
  5
94
330
2
100
AcDbSymbolTableRecord
100
AcDbLayerTableRecord
  2
108
 70
     0
 62
     7
  6
Continuous
290
     1
370
    -3
390
F
  0
LAYER
  5
95
330
2
100
AcDbSymbolTableRecord
100
AcDbLayerTableRecord
  2
109
 70
     0
 62
     7
  6
Continuous
290
     1
370
    -3
390
F
  0
LAYER
  5
96
330
2
100
AcDbSymbolTableRecord
100
AcDbLayerTableRecord
  2
110
 70
     0
 62
     7
  6
Continuous
290
     1
370
    -3
390
F
  0
LAYER
  5
97
330
2
100
AcDbSymbolTableRecord
100
AcDbLayerTableRecord
  2
111
 70
     0
 62
     7
  6
Continuous
290
     1
370
    -3
390
F
  0
LAYER
  5
98
330
2
100
AcDbSymbolTableRecord
100
AcDbLayerTableRecord
  2
112
 70
     0
 62
     7
  6
Continuous
290
     1
370
    -3
390
F
  0
LAYER
  5
99
330
2
100
AcDbSymbolTableRecord
100
AcDbLayerTableRecord
  2
113
 70
     0
 62
     7
  6
Continuous
290
     1
370
    -3
390
F
  0
LAYER
  5
9A
330
2
100
AcDbSymbolTableRecord
100
AcDbLayerTableRecord
  2
114
 70
     0
 62
     7
  6
Continuous
290
     1
370
    -3
390
F
  0
LAYER
  5
9B
330
2
100
AcDbSymbolTableRecord
100
AcDbLayerTableRecord
  2
115
 70
     0
 62
     7
  6
Continuous
290
     1
370
    -3
390
F
  0
LAYER
  5
9C
330
2
100
AcDbSymbolTableRecord
100
AcDbLayerTableRecord
  2
116
 70
     0
 62
     7
  6
Continuous
290
     1
370
    -3
390
F
  0
LAYER
  5
9D
330
2
100
AcDbSymbolTableRecord
100
AcDbLayerTableRecord
  2
117
 70
     0
 62
     7
  6
Continuous
290
     1
370
    -3
390
F
  0
LAYER
  5
9E
330
2
100
AcDbSymbolTableRecord
100
AcDbLayerTableRecord
  2
118
 70
     0
 62
     7
  6
Continuous
290
     1
370
    -3
390
F
  0
LAYER
  5
9F
330
2
100
AcDbSymbolTableRecord
100
AcDbLayerTableRecord
  2
119
 70
     0
 62
     7
  6
Continuous
290
     1
370
    -3
390
F
  0
LAYER
  5
A0
330
2
100
AcDbSymbolTableRecord
100
AcDbLayerTableRecord
  2
120
 70
     0
 62
     7
  6
Continuous
290
     1
370
    -3
390
F
  0
LAYER
  5
A1
330
2
100
AcDbSymbolTableRecord
100
AcDbLayerTableRecord
  2
121
 70
     0
 62
     7
  6
Continuous
290
     1
370
    -3
390
F
  0
LAYER
  5
A2
330
2
100
AcDbSymbolTableRecord
100
AcDbLayerTableRecord
  2
122
 70
     0
 62
     7
  6
Continuous
290
     1
370
    -3
390
F
  0
LAYER
  5
A3
330
2
100
AcDbSymbolTableRecord
100
AcDbLayerTableRecord
  2
123
 70
     0
 62
     7
  6
Continuous
290
     1
370
    -3
390
F
  0
LAYER
  5
A4
330
2
100
AcDbSymbolTableRecord
100
AcDbLayerTableRecord
  2
124
 70
     0
 62
     7
  6
Continuous
290
     1
370
    -3
390
F
  0
LAYER
  5
A5
330
2
100
AcDbSymbolTableRecord
100
AcDbLayerTableRecord
  2
125
 70
     0
 62
     7
  6
Continuous
290
     1
370
    -3
390
F
  0
LAYER
  5
A6
330
2
100
AcDbSymbolTableRecord
100
AcDbLayerTableRecord
  2
126
 70
     0
 62
     7
  6
Continuous
290
     1
370
    -3
390
F
  0
LAYER
  5
A7
330
2
100
AcDbSymbolTableRecord
100
AcDbLayerTableRecord
  2
127
 70
     0
 62
     7
  6
Continuous
290
     1
370
    -3
390
F
  0
LAYER
  5
A8
330
2
100
AcDbSymbolTableRecord
100
AcDbLayerTableRecord
  2
128
 70
     0
 62
     7
  6
Continuous
290
     1
370
    -3
390
F
  0
ENDTAB
  0
TABLE
  2
STYLE
  5
3
330
0
100
AcDbSymbolTable
 70
     8
  0
STYLE
  5
11
330
3
100
AcDbSymbolTableRecord
100
AcDbTextStyleTableRecord
  2
Standard
 70
     0
 40
0.0
 41
1.0
 50
0.0
 71
     0
 42
2.5
  3
txt.shx
  4
extfont.shx
  0
STYLE
  5
AA
330
3
100
AcDbSymbolTableRecord
100
AcDbTextStyleTableRecord
  2
KANJI0
 70
     0
 40
3.0
 41
0.8
 50
0.0
 71
     0
 42
3.0
  3
txt.shx
  4
extfont.shx
  0
STYLE
  5
B0
330
3
100
AcDbSymbolTableRecord
100
AcDbTextStyleTableRecord
  2
KANJI1
 70
     0
 40
3.0
 41
0.833
 50
0.0
 71
     0
 42
3.0
  3
txt.shx
  4
extfont.shx
  0
STYLE
  5
C2
330
3
100
AcDbSymbolTableRecord
100
AcDbTextStyleTableRecord
  2
KANJI2
 70
     0
 40
10.0
 41
1.0
 50
0.0
 71
     0
 42
10.0
  3
txt.shx
  4
extfont.shx
  0
STYLE
  5
1CB
330
3
100
AcDbSymbolTableRecord
100
AcDbTextStyleTableRecord
  2
KANJI3
 70
     0
 40
3.0
 41
0.6
 50
0.0
 71
     0
 42
3.0
  3
txt.shx
  4
extfont.shx
  0
STYLE
  5
1E5
330
3
100
AcDbSymbolTableRecord
100
AcDbTextStyleTableRecord
  2
KANJI4
 70
     0
 40
5.0
 41
0.54
 50
0.0
 71
     0
 42
5.0
  3
txt.shx
  4
extfont.shx
  0
STYLE
  5
248
330
3
100
AcDbSymbolTableRecord
100
AcDbTextStyleTableRecord
  2
KANJI5
 70
     0
 40
3.0
 41
0.9
 50
0.0
 71
     0
 42
3.0
  3
txt.shx
  4
extfont.shx
  0
STYLE
  5
258
330
3
100
AcDbSymbolTableRecord
100
AcDbTextStyleTableRecord
  2
KANJI6
 70
     0
 40
10.0
 41
0.75
 50
0.0
 71
     0
 42
10.0
  3
txt.shx
  4
extfont.shx
  0
ENDTAB
  0
TABLE
  2
VIEW
  5
6
330
0
100
AcDbSymbolTable
 70
     0
  0
ENDTAB
  0
TABLE
  2
UCS
  5
7
330
0
100
AcDbSymbolTable
 70
     0
  0
ENDTAB
  0
TABLE
  2
APPID
  5
9
330
0
100
AcDbSymbolTable
 70
     1
  0
APPID
  5
12
330
9
100
AcDbSymbolTableRecord
100
AcDbRegAppTableRecord
  2
ACAD
 70
     0
  0
ENDTAB
  0
TABLE
  2
DIMSTYLE
  5
A
330
0
100
AcDbSymbolTable
 70
     1
100
AcDbDimStyleTable
 71
     0
  0
DIMSTYLE
105
27
330
A
100
AcDbSymbolTableRecord
100
AcDbDimStyleTableRecord
  2
ISO-25
 70
    64
  3

  4

 40
1.0
 41
2.5
 42
0.625
 43
3.75
 44
1.25
 45
0.0
 46
0.0
 47
0.0
 48
0.0
 71
     0
 72
     0
 73
     0
 74
     0
 75
     0
 76
     0
 77
     1
 78
     8
 79
     0
140
2.5
141
2.5
142
0.0
143
0.039370079
144
1.0
145
0.0
146
1.0
147
0.625
148
0.0
170
     0
171
     3
172
     1
173
     0
174
     0
175
     0
176
     0
177
     0
178
     0
179
     0
270
     2
271
     2
272
     2
273
     2
274
     3
275
     0
276
     0
277
     2
278
    46
279
     0
280
     0
281
     0
282
     0
283
     1
284
     8
285
     0
286
     0
288
     0
289
     3
340
11
341
0
342
0
343
0
344
0
371
    -2
372
    -2
  0
ENDTAB
  0
TABLE
  2
BLOCK_RECORD
  5
1
330
0
100
AcDbSymbolTable
 70
     3
  0
BLOCK_RECORD
  5
1F
330
1
100
AcDbSymbolTableRecord
100
AcDbBlockTableRecord
  2
*Model_Space
340
22
  0
BLOCK_RECORD
  5
1B
330
1
100
AcDbSymbolTableRecord
100
AcDbBlockTableRecord
  2
*Paper_Space
340
1E
  0
BLOCK_RECORD
  5
23
330
1
100
AcDbSymbolTableRecord
100
AcDbBlockTableRecord
  2
*Paper_Space0
340
26
  0
ENDTAB
  0
ENDSEC
  0
SECTION
  2
BLOCKS
  0
BLOCK
  5
1C
330
1B
100
AcDbEntity
 67
     1
  8
0
100
AcDbBlockBegin
  2
*Paper_Space
 70
     0
 10
0.0
 20
0.0
 30
0.0
  3
*Paper_Space
  1

  0
ENDBLK
  5
1D
330
1B
100
AcDbEntity
  8
0
100
AcDbBlockEnd
  0
BLOCK
  5
20
330
1F
100
AcDbEntity
  8
0
100
AcDbBlockBegin
  2
*Model_Space
 70
     0
 10
0.0
 20
0.0
 30
0.0
  3
*Model_Space
  1

  0
ENDBLK
  5
21
330
1F
100
AcDbEntity
  8
0
100
AcDbBlockEnd
  0
BLOCK
  5
24
330
23
100
AcDbEntity
 67
     1
  8
0
100
AcDbBlockBegin
  2
*Paper_Space0
 70
     0
 10
0.0
 20
0.0
 30
0.0
  3
*Paper_Space0
  1

  0
ENDBLK
  5
25
330
23
100
AcDbEntity
  8
0
100
AcDbBlockEnd
  0
ENDSEC
  0
SECTION
  2
ENTITIES
  0
MTEXT
  5
A9
330
1F
100
AcDbEntity
  8
0
  6
Continuous
 62
     3
100
AcDbMText
 10
234.273979592
 20
139.65
 30
0.0
 40
3.0
 41
14.4
 71
     7
 72
     1
  1
\W0.800;配線図
  7
KANJI0
 73
     1
 44
1.0
  0
LINE
  5
AB
330
1F
100
AcDbEntity
  8
0
  6
Continuous
 62
     2
100
AcDbLine
 10
335.447959184
 20
128.4
 30
0.0
 11
325.347959184
 21
128.4
 31
0.0
  0
LINE
  5
AC
330
1F
100
AcDbEntity
  8
0
  6
Continuous
 62
     2
100
AcDbLine
 10
325.347959184
 20
118.4
 30
0.0
 11
335.347959184
 21
118.4
 31
0.0
  0
LINE
  5
AD
330
1F
100
AcDbEntity
  8
0
  6
Continuous
 62
     2
100
AcDbLine
 10
335.347959184
 20
108.4
 30
0.0
 11
325.347959184
 21
108.4
 31
0.0
  0
LINE
  5
AE
330
1F
100
AcDbEntity
  8
0
  6
Continuous
 62
     2
100
AcDbLine
 10
335.347959184
 20
98.4
 30
0.0
 11
325.347959184
 21
98.4
 31
0.0
  0
MTEXT
  5
AF
330
1F
100
AcDbEntity
  8
0
  6
Continuous
 62
     3
100
AcDbMText
 10
328.947959184
 20
121.9
 30
0.0
 40
3.0
 41
4.998
 71
     7
 72
     1
  1
\W0.833;３
  7
KANJI1
 73
     1
 44
1.0
  0
MTEXT
  5
B1
330
1F
100
AcDbEntity
  8
0
  6
Continuous
 62
     3
100
AcDbMText
 10
328.947959184
 20
111.9
 30
0.0
 40
3.0
 41
4.998
 71
     7
 72
     1
  1
\W0.833;２
  7
KANJI1
 73
     1
 44
1.0
  0
MTEXT
  5
B2
330
1F
100
AcDbEntity
  8
0
  6
Continuous
 62
     3
100
AcDbMText
 10
328.947959184
 20
101.9
 30
0.0
 40
3.0
 41
4.998
 71
     7
 72
     1
  1
\W0.833;１
  7
KANJI1
 73
     1
 44
1.0
  0
LINE
  5
B3
330
1F
100
AcDbEntity
  8
0
  6
Continuous
 62
     2
100
AcDbLine
 10
325.347959184
 20
103.4
 30
0.0
 11
249.223979592
 21
103.4
 31
0.0
  0
MTEXT
  5
B4
330
1F
100
AcDbEntity
  8
0
  6
Continuous
 62
     3
100
AcDbMText
 10
338.073979592
 20
121.85
 30
0.0
 40
3.0
 41
9.6
 71
     7
 72
     1
  1
\W0.800;信号
  7
KANJI0
 73
     1
 44
1.0
  0
MTEXT
  5
B5
330
1F
100
AcDbEntity
  8
0
  6
Continuous
 62
     3
100
AcDbMText
 10
339.173979592
 20
101.85
 30
0.0
 40
3.0
 41
19.2
 71
     7
 72
     1
  1
\W0.800;＋２４Ｖ
  7
KANJI0
 73
     1
 44
1.0
  0
LINE
  5
B6
330
1F
100
AcDbEntity
  8
0
  6
Continuous
 62
     2
100
AcDbLine
 10
325.347959184
 20
128.4
 30
0.0
 11
325.347959184
 21
98.4
 31
0.0
  0
LINE
  5
B7
330
1F
100
AcDbEntity
  8
0
  6
Continuous
 62
     2
100
AcDbLine
 10
335.347959184
 20
98.4
 30
0.0
 11
335.347959184
 21
128.4
 31
0.0
  0
LINE
  5
B8
330
1F
100
AcDbEntity
  8
0
  6
Continuous
 62
     2
100
AcDbLine
 10
325.347959184
 20
123.4
 30
0.0
 11
249.223979592
 21
123.4
 31
0.0
  0
MTEXT
  5
B9
330
1F
100
AcDbEntity
  8
0
  6
Continuous
 62
     3
100
AcDbMText
 10
257.223979592
 20
104.8
 30
0.0
 40
3.0
 41
9.6
 71
     7
 72
     1
  1
\W0.800;アカ
  7
KANJI0
 73
     1
 44
1.0
  0
MTEXT
  5
BA
330
1F
100
AcDbEntity
  8
0
  6
Continuous
 62
     3
100
AcDbMText
 10
254.823979592
 20
124.8
 30
0.0
 40
3.0
 41
19.2
 71
     7
 72
     1
  1
\W0.800;オレンジ
  7
KANJI0
 73
     1
 44
1.0
  0
MTEXT
  5
BB
330
1F
100
AcDbEntity
  8
0
  6
Continuous
 62
     3
100
AcDbMText
 10
238.523979592
 20
88.4
 30
0.0
 40
3.0
 41
86.4
 71
     7
 72
     1
  1
\W0.800;アカ、オレンジ以外の線は根元でカット
  7
KANJI0
 73
     1
 44
1.0
  0
LINE
  5
BD
330
1F
100
AcDbEntity
  8
0
  6
LTYPE1
 62
     3
100
AcDbLine
 10
353.723979592
 20
81.5
 30
0.0
 11
353.723979592
 21
145.3
 31
0.0
  0
LINE
  5
BE
330
1F
100
AcDbEntity
  8
0
  6
LTYPE1
 62
     3
100
AcDbLine
 10
353.723979592
 20
145.3
 30
0.0
 11
227.823979592
 21
145.3
 31
0.0
  0
LINE
  5
BF
330
1F
100
AcDbEntity
  8
0
  6
LTYPE1
 62
     3
100
AcDbLine
 10
227.823979592
 20
145.3
 30
0.0
 11
227.823979592
 21
81.5
 31
0.0
  0
LINE
  5
C0
330
1F
100
AcDbEntity
  8
0
  6
LTYPE1
 62
     3
100
AcDbLine
 10
227.823979592
 20
81.5
 30
0.0
 11
353.723979592
 21
81.5
 31
0.0
  0
MTEXT
  5
C1
330
1F
100
AcDbEntity
  8
0
  6
Continuous
 62
     1
100
AcDbMText
 10
79.6
 20
111.33
 30
0.0
 40
10.0
 41
130.0
 71
     7
 72
     1
  1
\T1.100;\W1.000;ランプ（赤）
  7
KANJI2
 73
     1
 44
1.0
  0
LINE
  5
C3
330
1F
100
AcDbEntity
  8
0
  6
Continuous
 62
     3
100
AcDbLine
 10
38.990892272
 20
178.642124855
 30
0.0
 11
38.970517772
 21
178.692332855
 31
0.0
  0
POINT
  5
C4
330
1F
100
AcDbEntity
  8
0
  6
Continuous
 62
     3
100
AcDbPoint
 10
38.970517772
 20
178.692332855
 30
0.0
  0
LINE
  5
C5
330
1F
100
AcDbEntity
  8
2
  6
Continuous
 62
     3
100
AcDbLine
 10
70.801556
 20
226.020055
 30
0.0
 11
70.842305
 21
226.120471
 31
0.0
  0
LINE
  5
C6
330
1F
100
AcDbEntity
  8
2
  6
Continuous
 62
     3
100
AcDbLine
 10
70.842305
 20
226.120471
 30
0.0
 11
70.895439
 21
226.212858
 31
0.0
  0
LINE
  5
C7
330
1F
100
AcDbEntity
  8
2
  6
Continuous
 62
     3
100
AcDbLine
 10
70.895439
 20
226.212858
 30
0.0
 11
70.959798
 21
226.295195
 31
0.0
  0
LINE
  5
C8
330
1F
100
AcDbEntity
  8
2
  6
Continuous
 62
     3
100
AcDbLine
 10
70.959798
 20
226.295195
 30
0.0
 11
71.033974
 21
226.365685
 31
0.0
  0
LINE
  5
C9
330
1F
100
AcDbEntity
  8
2
  6
Continuous
 62
     3
100
AcDbLine
 10
71.033974
 20
226.365685
 30
0.0
 11
71.116346
 21
226.422786
 31
0.0
  0
LINE
  5
CA
330
1F
100
AcDbEntity
  8
2
  6
Continuous
 62
     3
100
AcDbLine
 10
71.116346
 20
226.422786
 30
0.0
 11
71.205114
 21
226.46525
 31
0.0
  0
LINE
  5
CB
330
1F
100
AcDbEntity
  8
2
  6
Continuous
 62
     3
100
AcDbLine
 10
71.205114
 20
226.46525
 30
0.0
 11
71.298338
 21
226.492149
 31
0.0
  0
LINE
  5
CC
330
1F
100
AcDbEntity
  8
2
  6
Continuous
 62
     3
100
AcDbLine
 10
71.298338
 20
226.492149
 30
0.0
 11
71.393981
 21
226.502895
 31
0.0
  0
LINE
  5
CD
330
1F
100
AcDbEntity
  8
2
  6
Continuous
 62
     3
100
AcDbLine
 10
71.393981
 20
226.502895
 30
0.0
 11
71.489951
 21
226.497254
 31
0.0
  0
LINE
  5
CE
330
1F
100
AcDbEntity
  8
2
  6
Continuous
 62
     3
100
AcDbLine
 10
71.489951
 20
226.497254
 30
0.0
 11
71.584152
 21
226.475348
 31
0.0
  0
LINE
  5
CF
330
1F
100
AcDbEntity
  8
2
  6
Continuous
 62
     3
100
AcDbLine
 10
71.584152
 20
226.475348
 30
0.0
 11
71.674524
 21
226.437656
 31
0.0
  0
LINE
  5
D0
330
1F
100
AcDbEntity
  8
2
  6
Continuous
 62
     3
100
AcDbLine
 10
71.674524
 20
226.437656
 30
0.0
 11
71.759092
 21
226.385003
 31
0.0
  0
LINE
  5
D1
330
1F
100
AcDbEntity
  8
2
  6
Continuous
 62
     3
100
AcDbLine
 10
70.793268
 20
186.994369
 30
0.0
 11
70.758987
 21
188.958331
 31
0.0
  0
LINE
  5
D2
330
1F
100
AcDbEntity
  8
2
  6
Continuous
 62
     3
100
AcDbLine
 10
71.759092
 20
186.621187
 30
0.0
 11
71.674524
 21
186.568534
 31
0.0
  0
LINE
  5
D3
330
1F
100
AcDbEntity
  8
2
  6
Continuous
 62
     3
100
AcDbLine
 10
71.674524
 20
186.568534
 30
0.0
 11
71.584152
 21
186.530842
 31
0.0
  0
LINE
  5
D4
330
1F
100
AcDbEntity
  8
2
  6
Continuous
 62
     3
100
AcDbLine
 10
71.584152
 20
186.530842
 30
0.0
 11
71.489951
 21
186.508936
 31
0.0
  0
LINE
  5
D5
330
1F
100
AcDbEntity
  8
2
  6
Continuous
 62
     3
100
AcDbLine
 10
71.489951
 20
186.508936
 30
0.0
 11
71.393981
 21
186.503295
 31
0.0
  0
LINE
  5
D6
330
1F
100
AcDbEntity
  8
2
  6
Continuous
 62
     3
100
AcDbLine
 10
71.393981
 20
186.503295
 30
0.0
 11
71.298338
 21
186.514041
 31
0.0
  0
LINE
  5
D7
330
1F
100
AcDbEntity
  8
2
  6
Continuous
 62
     3
100
AcDbLine
 10
71.298338
 20
186.514041
 30
0.0
 11
71.205114
 21
186.54094
 31
0.0
  0
LINE
  5
D8
330
1F
100
AcDbEntity
  8
2
  6
Continuous
 62
     3
100
AcDbLine
 10
71.205114
 20
186.54094
 30
0.0
 11
71.116346
 21
186.583404
 31
0.0
  0
LINE
  5
D9
330
1F
100
AcDbEntity
  8
2
  6
Continuous
 62
     3
100
AcDbLine
 10
71.116346
 20
186.583404
 30
0.0
 11
71.033974
 21
186.640505
 31
0.0
  0
LINE
  5
DA
330
1F
100
AcDbEntity
  8
2
  6
Continuous
 62
     3
100
AcDbLine
 10
71.033974
 20
186.640505
 30
0.0
 11
70.959798
 21
186.710995
 31
0.0
  0
LINE
  5
DB
330
1F
100
AcDbEntity
  8
2
  6
Continuous
 62
     3
100
AcDbLine
 10
70.959798
 20
186.710995
 30
0.0
 11
70.895439
 21
186.793332
 31
0.0
  0
LINE
  5
DC
330
1F
100
AcDbEntity
  8
2
  6
Continuous
 62
     3
100
AcDbLine
 10
70.895439
 20
186.793332
 30
0.0
 11
70.842305
 21
186.885719
 31
0.0
  0
LINE
  5
DD
330
1F
100
AcDbEntity
  8
2
  6
Continuous
 62
     3
100
AcDbLine
 10
70.842305
 20
186.885719
 30
0.0
 11
70.801556
 21
186.986135
 31
0.0
  0
ARC
  5
DE
330
1F
100
AcDbEntity
  8
2
  6
Continuous
 62
     3
100
AcDbCircle
 10
71.758987
 20
76.503095
 30
0.0
 40
150.0
100
AcDbArc
 50
82.325676
 51
89.999995
  0
ARC
  5
DF
330
1F
100
AcDbEntity
  8
2
  6
Continuous
 62
     3
100
AcDbCircle
 10
110.258987
 20
219.518018
 30
0.0
 40
1.0
100
AcDbArc
 50
0.000003
 51
88.999997
  0
ARC
  5
E0
330
1F
100
AcDbEntity
  8
2
  6
Continuous
 62
     3
100
AcDbCircle
 10
110.258987
 20
193.488141
 30
0.0
 40
1.0
100
AcDbArc
 50
271.0
 51
0.000003
  0
ARC
  5
E1
330
1F
100
AcDbEntity
  8
2
  6
Continuous
 62
     3
100
AcDbCircle
 10
91.656756
 20
188.837667
 30
0.0
 40
1.0
100
AcDbArc
 50
277.674324
 51
326.841821
  0
ARC
  5
E2
330
1F
100
AcDbEntity
  8
2
  6
Continuous
 62
     3
100
AcDbCircle
 10
91.656756
 20
224.168523
 30
0.0
 40
1.0
100
AcDbArc
 50
33.158179
 51
82.325676
  0
ARC
  5
E3
330
1F
100
AcDbEntity
  8
2
  6
Continuous
 62
     3
100
AcDbCircle
 10
99.91367
 20
229.563093
 30
0.0
 40
8.862961
100
AcDbArc
 50
213.158179
 51
268.999983
  0
ARC
  5
E4
330
1F
100
AcDbEntity
  8
2
  6
Continuous
 62
     3
100
AcDbCircle
 10
99.91367
 20
183.443097
 30
0.0
 40
8.862961
100
AcDbArc
 50
91.000017
 51
146.841821
  0
ARC
  5
E5
330
1F
100
AcDbEntity
  8
2
  6
Continuous
 62
     3
100
AcDbCircle
 10
71.758987
 20
336.503095
 30
0.0
 40
150.0
100
AcDbArc
 50
270.0
 51
277.674324
  0
LINE
  5
E6
330
1F
100
AcDbEntity
  8
2
  6
Continuous
 62
     3
100
AcDbLine
 10
110.276432
 20
192.488291
 30
0.0
 11
99.758987
 21
192.304708
 31
0.0
  0
LINE
  5
E7
330
1F
100
AcDbEntity
  8
2
  6
Continuous
 62
     3
100
AcDbLine
 10
111.258987
 20
219.518018
 30
0.0
 11
111.258987
 21
193.488141
 31
0.0
  0
LINE
  5
E8
330
1F
100
AcDbEntity
  8
2
  6
Continuous
 62
     3
100
AcDbLine
 10
110.276432
 20
220.517899
 30
0.0
 11
99.758987
 21
220.701482
 31
0.0
  0
LINE
  5
E9
330
1F
100
AcDbEntity
  8
2
  6
Continuous
 62
     3
100
AcDbLine
 10
92.258991
 20
188.039348
 30
0.0
 11
92.258991
 21
224.966842
 31
0.0
  0
LINE
  5
EA
330
1F
100
AcDbEntity
  8
2
  6
Continuous
 62
     3
100
AcDbLine
 10
71.758987
 20
226.503095
 30
0.0
 11
71.758987
 21
186.503095
 31
0.0
  0
LINE
  5
EB
330
1F
100
AcDbEntity
  8
2
  6
Continuous
 62
     3
100
AcDbLine
 10
70.758987
 20
188.953095
 30
0.0
 11
70.758987
 21
224.053095
 31
0.0
  0
LINE
  5
EC
330
1F
100
AcDbEntity
  8
2
  6
Continuous
 62
     3
100
AcDbLine
 10
70.793268
 20
226.011821
 30
0.0
 11
70.758987
 21
224.047859
 31
0.0
  0
LINE
  5
ED
330
1F
100
AcDbEntity
  8
2
  6
Continuous
 62
     3
100
AcDbLine
 10
111.258997
 20
197.853
 30
0.0
 11
111.258997
 21
215.153
 31
0.0
  0
LINE
  5
EE
330
1F
100
AcDbEntity
  8
2
  6
Continuous
 62
     3
100
AcDbLine
 10
111.258997
 20
197.853
 30
0.0
 11
350.259
 21
197.853
 31
0.0
  0
LINE
  5
EF
330
1F
100
AcDbEntity
  8
2
  6
Continuous
 62
     3
100
AcDbLine
 10
111.258997
 20
215.153
 30
0.0
 11
350.259
 21
215.153
 31
0.0
  0
LINE
  5
F0
330
1F
100
AcDbEntity
  8
2
  6
Continuous
 62
     3
100
AcDbLine
 10
35.793281
 20
226.011726
 30
0.0
 11
35.759
 21
224.047764
 31
0.0
  0
LINE
  5
F1
330
1F
100
AcDbEntity
  8
2
  6
Continuous
 62
     3
100
AcDbLine
 10
35.793281
 20
186.994274
 30
0.0
 11
35.759
 21
188.958236
 31
0.0
  0
LINE
  5
F2
330
1F
100
AcDbEntity
  8
2
  6
Continuous
 62
     3
100
AcDbLine
 10
70.793281
 20
186.994274
 30
0.0
 11
70.759
 21
188.958236
 31
0.0
  0
LINE
  5
F3
330
1F
100
AcDbEntity
  8
2
  6
Continuous
 62
     3
100
AcDbLine
 10
70.793281
 20
226.011726
 30
0.0
 11
70.759
 21
224.047764
 31
0.0
  0
LINE
  5
F4
330
1F
100
AcDbEntity
  8
2
  6
Continuous
 62
     3
100
AcDbLine
 10
70.759
 20
224.053
 30
0.0
 11
70.759
 21
188.953
 31
0.0
  0
LINE
  5
F5
330
1F
100
AcDbEntity
  8
2
  6
Continuous
 62
     3
100
AcDbLine
 10
35.759
 20
224.053
 30
0.0
 11
35.759
 21
188.953
 31
0.0
  0
LINE
  5
F6
330
1F
100
AcDbEntity
  8
2
  6
Continuous
 62
    12
100
AcDbLine
 10
64.801856
 20
189.25963
 30
0.0
 11
37.801856
 21
189.25963
 31
0.0
  0
LINE
  5
F7
330
1F
100
AcDbEntity
  8
2
  6
Continuous
 62
    12
100
AcDbLine
 10
64.801856
 20
224.902477
 30
0.0
 11
37.801856
 21
224.902477
 31
0.0
  0
LINE
  5
F8
330
1F
100
AcDbEntity
  8
2
  6
Continuous
 62
    12
100
AcDbLine
 10
64.801856
 20
222.754734
 30
0.0
 11
37.801856
 21
222.754734
 31
0.0
  0
LINE
  5
F9
330
1F
100
AcDbEntity
  8
2
  6
Continuous
 62
    12
100
AcDbLine
 10
64.801856
 20
220.022245
 30
0.0
 11
37.801856
 21
220.022245
 31
0.0
  0
LINE
  5
FA
330
1F
100
AcDbEntity
  8
2
  6
Continuous
 62
    12
100
AcDbLine
 10
64.801856
 20
216.440291
 30
0.0
 11
37.801856
 21
216.440291
 31
0.0
  0
LINE
  5
FB
330
1F
100
AcDbEntity
  8
2
  6
Continuous
 62
    12
100
AcDbLine
 10
64.801856
 20
212.233941
 30
0.0
 11
37.801856
 21
212.233941
 31
0.0
  0
LINE
  5
FC
330
1F
100
AcDbEntity
  8
2
  6
Continuous
 62
    12
100
AcDbLine
 10
64.801856
 20
207.667495
 30
0.0
 11
37.801856
 21
207.667495
 31
0.0
  0
LINE
  5
FD
330
1F
100
AcDbEntity
  8
2
  6
Continuous
 62
    12
100
AcDbLine
 10
64.801856
 20
203.027879
 30
0.0
 11
37.801856
 21
203.027879
 31
0.0
  0
LINE
  5
FE
330
1F
100
AcDbEntity
  8
2
  6
Continuous
 62
    12
100
AcDbLine
 10
64.801856
 20
198.606618
 30
0.0
 11
37.801856
 21
198.606618
 31
0.0
  0
LINE
  5
FF
330
1F
100
AcDbEntity
  8
2
  6
Continuous
 62
    12
100
AcDbLine
 10
64.801856
 20
191.499201
 30
0.0
 11
37.801856
 21
191.499201
 31
0.0
  0
LINE
  5
100
330
1F
100
AcDbEntity
  8
2
  6
Continuous
 62
    12
100
AcDbLine
 10
64.801856
 20
218.324484
 30
0.0
 11
37.801856
 21
218.324484
 31
0.0
  0
LINE
  5
101
330
1F
100
AcDbEntity
  8
2
  6
Continuous
 62
    12
100
AcDbLine
 10
64.801856
 20
214.399382
 30
0.0
 11
37.801856
 21
214.399382
 31
0.0
  0
LINE
  5
102
330
1F
100
AcDbEntity
  8
2
  6
Continuous
 62
    12
100
AcDbLine
 10
64.801856
 20
209.978121
 30
0.0
 11
37.801856
 21
209.978121
 31
0.0
  0
LINE
  5
103
330
1F
100
AcDbEntity
  8
2
  6
Continuous
 62
    12
100
AcDbLine
 10
64.801856
 20
205.338505
 30
0.0
 11
37.801856
 21
205.338505
 31
0.0
  0
LINE
  5
104
330
1F
100
AcDbEntity
  8
2
  6
Continuous
 62
    12
100
AcDbLine
 10
64.801856
 20
196.565709
 30
0.0
 11
37.801856
 21
196.565709
 31
0.0
  0
LINE
  5
105
330
1F
100
AcDbEntity
  8
2
  6
Continuous
 62
    12
100
AcDbLine
 10
64.801856
 20
200.772059
 30
0.0
 11
37.801856
 21
200.772059
 31
0.0
  0
LINE
  5
106
330
1F
100
AcDbEntity
  8
2
  6
Continuous
 62
    12
100
AcDbLine
 10
64.801856
 20
187.957285
 30
0.0
 11
37.801856
 21
187.957285
 31
0.0
  0
LINE
  5
107
330
1F
100
AcDbEntity
  8
2
  6
Continuous
 62
    12
100
AcDbLine
 10
64.801856
 20
188.103523
 30
0.0
 11
37.801856
 21
188.103523
 31
0.0
  0
LINE
  5
108
330
1F
100
AcDbEntity
  8
2
  6
Continuous
 62
    12
100
AcDbLine
 10
64.801856
 20
188.539932
 30
0.0
 11
37.801856
 21
188.539932
 31
0.0
  0
LINE
  5
109
330
1F
100
AcDbEntity
  8
2
  6
Continuous
 62
    12
100
AcDbLine
 10
64.801856
 20
190.251266
 30
0.0
 11
37.801856
 21
190.251266
 31
0.0
  0
LINE
  5
10A
330
1F
100
AcDbEntity
  8
2
  6
Continuous
 62
    12
100
AcDbLine
 10
64.801856
 20
192.983755
 30
0.0
 11
37.801856
 21
192.983755
 31
0.0
  0
LINE
  5
10B
330
1F
100
AcDbEntity
  8
2
  6
Continuous
 62
    12
100
AcDbLine
 10
64.801856
 20
194.681516
 30
0.0
 11
37.801856
 21
194.681516
 31
0.0
  0
LINE
  5
10C
330
1F
100
AcDbEntity
  8
2
  6
Continuous
 62
    12
100
AcDbLine
 10
64.801856
 20
225.048715
 30
0.0
 11
37.801856
 21
225.048715
 31
0.0
  0
LINE
  5
10D
330
1F
100
AcDbEntity
  8
2
  6
Continuous
 62
    12
100
AcDbLine
 10
64.801856
 20
224.466068
 30
0.0
 11
37.801856
 21
224.466068
 31
0.0
  0
LINE
  5
10E
330
1F
100
AcDbEntity
  8
2
  6
Continuous
 62
    12
100
AcDbLine
 10
64.801856
 20
223.74637
 30
0.0
 11
37.801856
 21
223.74637
 31
0.0
  0
LINE
  5
10F
330
1F
100
AcDbEntity
  8
2
  6
Continuous
 62
    12
100
AcDbLine
 10
64.801856
 20
221.506799
 30
0.0
 11
37.801856
 21
221.506799
 31
0.0
  0
LINE
  5
110
330
1F
100
AcDbEntity
  8
2
  6
Continuous
 62
    12
100
AcDbLine
 10
67.259
 20
186.503
 30
0.0
 11
67.259
 21
226.503
 31
0.0
  0
LINE
  5
111
330
1F
100
AcDbEntity
  8
2
  6
Continuous
 62
    12
100
AcDbLine
 10
38.259
 20
186.503
 30
0.0
 11
38.259
 21
226.503
 31
0.0
  0
LINE
  5
112
330
1F
100
AcDbEntity
  8
2
  6
Continuous
 62
    12
100
AcDbLine
 10
58.259
 20
186.531935
 30
0.0
 11
58.259
 21
226.474065
 31
0.0
  0
LINE
  5
113
330
1F
100
AcDbEntity
  8
2
  6
Continuous
 62
    12
100
AcDbLine
 10
53.259
 20
186.548061
 30
0.0
 11
53.259
 21
226.457939
 31
0.0
  0
LINE
  5
114
330
1F
100
AcDbEntity
  8
2
  6
Continuous
 62
    12
100
AcDbLine
 10
48.759
 20
186.614946
 30
0.0
 11
48.759
 21
226.391054
 31
0.0
  0
LINE
  5
115
330
1F
100
AcDbEntity
  8
2
  6
Continuous
 62
    12
100
AcDbLine
 10
44.759
 20
186.639213
 30
0.0
 11
44.759
 21
226.366787
 31
0.0
  0
LINE
  5
116
330
1F
100
AcDbEntity
  8
2
  6
Continuous
 62
    12
100
AcDbLine
 10
40.759
 20
186.718056
 30
0.0
 11
40.759
 21
226.287944
 31
0.0
  0
LINE
  5
117
330
1F
100
AcDbEntity
  8
2
  6
Continuous
 62
    12
100
AcDbLine
 10
61.259
 20
186.548822
 30
0.0
 11
61.259
 21
226.457178
 31
0.0
  0
LINE
  5
118
330
1F
100
AcDbEntity
  8
2
  6
Continuous
 62
    12
100
AcDbLine
 10
64.259
 20
186.548822
 30
0.0
 11
64.259
 21
226.457178
 31
0.0
  0
ARC
  5
119
330
1F
100
AcDbEntity
  8
2
  6
Continuous
 62
     3
100
AcDbCircle
 10
39.509
 20
185.872524
 30
0.0
 40
1.4
100
AcDbArc
 50
44.639988
 51
153.234499
  0
ARC
  5
11A
330
1F
100
AcDbEntity
  8
2
  6
Continuous
 62
     3
100
AcDbCircle
 10
42.759
 20
184.266932
 30
0.0
 40
3.0
100
AcDbArc
 50
55.150095
 51
122.84097
  0
ARC
  5
11B
330
1F
100
AcDbEntity
  8
2
  6
Continuous
 62
     3
100
AcDbCircle
 10
46.759
 20
184.266932
 30
0.0
 40
3.0
100
AcDbArc
 50
54.423779
 51
124.849905
  0
ARC
  5
11C
330
1F
100
AcDbEntity
  8
2
  6
Continuous
 62
     3
100
AcDbCircle
 10
51.009
 20
183.195811
 30
0.0
 40
4.0
100
AcDbArc
 50
58.679478
 51
119.468478
  0
ARC
  5
11D
330
1F
100
AcDbEntity
  8
2
  6
Continuous
 62
     3
100
AcDbCircle
 10
55.759
 20
176.820542
 30
0.0
 40
10.0
100
AcDbArc
 50
76.485281
 51
103.27345
  0
ARC
  5
11E
330
1F
100
AcDbEntity
  8
2
  6
Continuous
 62
     3
100
AcDbCircle
 10
59.759
 20
183.340722
 30
0.0
 40
3.5
100
AcDbArc
 50
67.975687
 51
112.740014
  0
ARC
  5
11F
330
1F
100
AcDbEntity
  8
2
  6
Continuous
 62
     3
100
AcDbCircle
 10
62.759
 20
183.340722
 30
0.0
 40
3.5
100
AcDbArc
 50
67.975687
 51
112.024313
  0
ARC
  5
120
330
1F
100
AcDbEntity
  8
2
  6
Continuous
 62
     3
100
AcDbCircle
 10
65.759
 20
183.340722
 30
0.0
 40
3.5
100
AcDbArc
 50
64.623066
 51
112.024313
  0
ARC
  5
121
330
1F
100
AcDbEntity
  8
2
  6
Continuous
 62
     3
100
AcDbCircle
 10
40.860918
 20
187.207559
 30
0.0
 40
0.5
100
AcDbArc
 50
224.639988
 51
302.84097
  0
ARC
  5
122
330
1F
100
AcDbEntity
  8
2
  6
Continuous
 62
     3
100
AcDbCircle
 10
44.759
 20
187.139213
 30
0.0
 40
0.5
100
AcDbArc
 50
235.150095
 51
304.849905
  0
ARC
  5
123
330
1F
100
AcDbEntity
  8
2
  6
Continuous
 62
     3
100
AcDbCircle
 10
48.795249
 20
187.11363
 30
0.0
 40
0.5
100
AcDbArc
 50
234.423779
 51
299.468478
  0
ARC
  5
124
330
1F
100
AcDbEntity
  8
2
  6
Continuous
 62
     3
100
AcDbCircle
 10
64.259
 20
187.048822
 30
0.0
 40
0.5
100
AcDbArc
 50
247.975687
 51
292.024313
  0
ARC
  5
125
330
1F
100
AcDbEntity
  8
2
  6
Continuous
 62
     3
100
AcDbCircle
 10
61.259
 20
187.048822
 30
0.0
 40
0.5
100
AcDbArc
 50
247.975687
 51
292.024313
  0
ARC
  5
126
330
1F
100
AcDbEntity
  8
2
  6
Continuous
 62
     3
100
AcDbCircle
 10
53.348213
 20
187.040038
 30
0.0
 40
0.5
100
AcDbArc
 50
238.679478
 51
283.27345
  0
ARC
  5
127
330
1F
100
AcDbEntity
  8
2
  6
Continuous
 62
     3
100
AcDbCircle
 10
58.212799
 20
187.029796
 30
0.0
 40
0.5
100
AcDbArc
 50
256.485281
 51
292.740014
  0
LINE
  5
128
330
1F
100
AcDbEntity
  8
2
  6
Continuous
 62
     3
100
AcDbLine
 10
67.259
 20
186.503
 30
0.0
 11
70.301856
 21
186.503
 31
0.0
  0
LINE
  5
129
330
1F
100
AcDbEntity
  8
2
  6
Continuous
 62
     3
100
AcDbLine
 10
36.293205
 20
186.503
 30
0.0
 11
38.259
 21
186.503
 31
0.0
  0
ARC
  5
12A
330
1F
100
AcDbEntity
  8
2
  6
Continuous
 62
     3
100
AcDbCircle
 10
58.212799
 20
225.976204
 30
0.0
 40
0.5
100
AcDbArc
 50
67.259986
 51
103.514719
  0
ARC
  5
12B
330
1F
100
AcDbEntity
  8
2
  6
Continuous
 62
     3
100
AcDbCircle
 10
53.348213
 20
225.965962
 30
0.0
 40
0.5
100
AcDbArc
 50
76.72655
 51
121.320522
  0
ARC
  5
12C
330
1F
100
AcDbEntity
  8
2
  6
Continuous
 62
     3
100
AcDbCircle
 10
61.259
 20
225.957178
 30
0.0
 40
0.5
100
AcDbArc
 50
67.975687
 51
112.024313
  0
ARC
  5
12D
330
1F
100
AcDbEntity
  8
2
  6
Continuous
 62
     3
100
AcDbCircle
 10
64.259
 20
225.957178
 30
0.0
 40
0.5
100
AcDbArc
 50
67.975687
 51
112.024313
  0
ARC
  5
12E
330
1F
100
AcDbEntity
  8
2
  6
Continuous
 62
     3
100
AcDbCircle
 10
48.795249
 20
225.89237
 30
0.0
 40
0.5
100
AcDbArc
 50
60.531522
 51
125.576221
  0
ARC
  5
12F
330
1F
100
AcDbEntity
  8
2
  6
Continuous
 62
     3
100
AcDbCircle
 10
44.759
 20
225.866787
 30
0.0
 40
0.5
100
AcDbArc
 50
55.150095
 51
124.849905
  0
ARC
  5
130
330
1F
100
AcDbEntity
  8
2
  6
Continuous
 62
     3
100
AcDbCircle
 10
40.860918
 20
225.798441
 30
0.0
 40
0.5
100
AcDbArc
 50
57.15903
 51
135.360012
  0
LINE
  5
131
330
1F
100
AcDbEntity
  8
2
  6
Continuous
 62
     3
100
AcDbLine
 10
67.259
 20
226.503
 30
0.0
 11
70.301856
 21
226.503
 31
0.0
  0
ARC
  5
132
330
1F
100
AcDbEntity
  8
2
  6
Continuous
 62
     3
100
AcDbCircle
 10
65.759
 20
229.665278
 30
0.0
 40
3.5
100
AcDbArc
 50
247.975687
 51
295.376934
  0
ARC
  5
133
330
1F
100
AcDbEntity
  8
2
  6
Continuous
 62
     3
100
AcDbCircle
 10
62.759
 20
229.665278
 30
0.0
 40
3.5
100
AcDbArc
 50
247.975687
 51
292.024313
  0
ARC
  5
134
330
1F
100
AcDbEntity
  8
2
  6
Continuous
 62
     3
100
AcDbCircle
 10
59.759
 20
229.665278
 30
0.0
 40
3.5
100
AcDbArc
 50
247.259986
 51
292.024313
  0
ARC
  5
135
330
1F
100
AcDbEntity
  8
2
  6
Continuous
 62
     3
100
AcDbCircle
 10
55.759
 20
236.185458
 30
0.0
 40
10.0
100
AcDbArc
 50
256.72655
 51
283.514719
  0
ARC
  5
136
330
1F
100
AcDbEntity
  8
2
  6
Continuous
 62
     3
100
AcDbCircle
 10
51.009
 20
229.810189
 30
0.0
 40
4.0
100
AcDbArc
 50
240.531522
 51
301.320522
  0
ARC
  5
137
330
1F
100
AcDbEntity
  8
2
  6
Continuous
 62
     3
100
AcDbCircle
 10
46.759
 20
228.739068
 30
0.0
 40
3.0
100
AcDbArc
 50
235.150095
 51
305.576221
  0
ARC
  5
138
330
1F
100
AcDbEntity
  8
2
  6
Continuous
 62
     3
100
AcDbCircle
 10
42.759
 20
228.739068
 30
0.0
 40
3.0
100
AcDbArc
 50
237.15903
 51
304.849905
  0
ARC
  5
139
330
1F
100
AcDbEntity
  8
2
  6
Continuous
 62
     3
100
AcDbCircle
 10
39.509
 20
227.133476
 30
0.0
 40
1.4
100
AcDbArc
 50
206.765501
 51
315.360012
  0
LINE
  5
13A
330
1F
100
AcDbEntity
  8
2
  6
Continuous
 62
     3
100
AcDbLine
 10
36.293205
 20
226.503
 30
0.0
 11
38.259
 21
226.503
 31
0.0
  0
ARC
  5
13B
330
1F
100
AcDbEntity
  8
2
  6
Continuous
 62
     3
100
AcDbCircle
 10
36.293205
 20
187.003
 30
0.0
 40
0.5
100
AcDbArc
 50
181.0
 51
270.0
  0
ARC
  5
13C
330
1F
100
AcDbEntity
  8
2
  6
Continuous
 62
     3
100
AcDbCircle
 10
36.293205
 20
226.003
 30
0.0
 40
0.5
100
AcDbArc
 50
90.0
 51
179.0
  0
ARC
  5
13D
330
1F
100
AcDbEntity
  8
2
  6
Continuous
 62
     3
100
AcDbCircle
 10
70.301856
 20
187.003
 30
0.0
 40
0.5
100
AcDbArc
 50
270.0
 51
352.457877
  0
ARC
  5
13E
330
1F
100
AcDbEntity
  8
2
  6
Continuous
 62
     3
100
AcDbCircle
 10
70.301856
 20
226.003
 30
0.0
 40
0.5
100
AcDbArc
 50
7.542123
 51
90.0
  0
ARC
  5
13F
330
1F
100
AcDbEntity
  8
2
  6
Continuous
 62
     3
100
AcDbCircle
 10
31.328922
 20
189.580631
 30
0.0
 40
3.0
100
AcDbArc
 50
197.270525
 51
269.0
  0
ARC
  5
140
330
1F
100
AcDbEntity
  8
2
  6
Continuous
 62
     3
100
AcDbCircle
 10
35.301856
 20
187.011806
 30
0.0
 40
0.5
100
AcDbArc
 50
269.0
 51
351.966012
  0
ARC
  5
141
330
1F
100
AcDbEntity
  8
2
  6
Continuous
 62
     3
100
AcDbCircle
 10
31.328922
 20
223.425369
 30
0.0
 40
3.0
100
AcDbArc
 50
91.0
 51
162.729475
  0
ARC
  5
142
330
1F
100
AcDbEntity
  8
2
  6
Continuous
 62
     3
100
AcDbCircle
 10
35.301856
 20
225.994194
 30
0.0
 40
0.5
100
AcDbArc
 50
8.033988
 51
91.0
  0
ARC
  5
143
330
1F
100
AcDbEntity
  8
2
  6
Continuous
 62
     3
100
AcDbCircle
 10
85.759
 20
206.503
 30
0.0
 40
60.0
100
AcDbArc
 50
162.729475
 51
197.270525
  0
LINE
  5
144
330
1F
100
AcDbEntity
  8
2
  6
Continuous
 62
     3
100
AcDbLine
 10
35.759
 20
224.053
 30
0.0
 11
35.759
 21
188.953
 31
0.0
  0
LINE
  5
145
330
1F
100
AcDbEntity
  8
2
  6
Continuous
 62
     3
100
AcDbLine
 10
35.793281
 20
226.011726
 30
0.0
 11
35.759
 21
224.047764
 31
0.0
  0
LINE
  5
146
330
1F
100
AcDbEntity
  8
2
  6
Continuous
 62
     3
100
AcDbLine
 10
35.793281
 20
186.994274
 30
0.0
 11
35.759
 21
188.958236
 31
0.0
  0
LINE
  5
147
330
1F
100
AcDbEntity
  8
2
  6
Continuous
 62
     3
100
AcDbLine
 10
31.276565
 20
186.581088
 30
0.0
 11
35.29313
 21
186.511883
 31
0.0
  0
LINE
  5
148
330
1F
100
AcDbEntity
  8
2
  6
Continuous
 62
     3
100
AcDbLine
 10
31.276565
 20
226.424912
 30
0.0
 11
35.29313
 21
226.494117
 31
0.0
  0
LINE
  5
149
330
1F
100
AcDbEntity
  8
2
  6
Continuous
 62
     2
100
AcDbLine
 10
366.259
 20
220.503015
 30
0.0
 11
364.259
 21
220.503015
 31
0.0
  0
LINE
  5
14A
330
1F
100
AcDbEntity
  8
2
  6
Continuous
 62
     2
100
AcDbLine
 10
366.259
 20
192.503015
 30
0.0
 11
364.259
 21
192.503015
 31
0.0
  0
ARC
  5
14B
330
1F
100
AcDbEntity
  8
2
  6
Continuous
 62
     2
100
AcDbCircle
 10
390.259
 20
213.503015
 30
0.0
 40
1.0
100
AcDbArc
 50
0.0
 51
90.0
  0
ARC
  5
14C
330
1F
100
AcDbEntity
  8
2
  6
Continuous
 62
     2
100
AcDbCircle
 10
390.259
 20
199.503015
 30
0.0
 40
1.0
100
AcDbArc
 50
270.0
 51
0.0
  0
ARC
  5
14D
330
1F
100
AcDbEntity
  8
2
  6
Continuous
 62
     2
100
AcDbCircle
 10
377.012906
 20
218.128015
 30
0.0
 40
4.753906
100
AcDbArc
 50
125.400856
 51
234.599144
  0
ARC
  5
14E
330
1F
100
AcDbEntity
  8
2
  6
Continuous
 62
     2
100
AcDbCircle
 10
388.274625
 20
206.503015
 30
0.0
 40
16.015625
100
AcDbArc
 50
151.059412
 51
208.940588
  0
ARC
  5
14F
330
1F
100
AcDbEntity
  8
2
  6
Continuous
 62
     2
100
AcDbCircle
 10
377.012906
 20
194.878015
 30
0.0
 40
4.753906
100
AcDbArc
 50
125.400856
 51
234.599144
  0
ARC
  5
150
330
1F
100
AcDbEntity
  8
2
  6
Continuous
 62
     2
100
AcDbCircle
 10
378.505094
 20
194.878015
 30
0.0
 40
4.753906
100
AcDbArc
 50
305.400856
 51
54.599144
  0
ARC
  5
151
330
1F
100
AcDbEntity
  8
2
  6
Continuous
 62
     2
100
AcDbCircle
 10
367.243375
 20
206.503015
 30
0.0
 40
16.015625
100
AcDbArc
 50
331.059412
 51
28.940588
  0
ARC
  5
152
330
1F
100
AcDbEntity
  8
2
  6
Continuous
 62
     2
100
AcDbCircle
 10
378.505094
 20
218.128015
 30
0.0
 40
4.753906
100
AcDbArc
 50
305.400856
 51
54.599144
  0
ARC
  5
153
330
1F
100
AcDbEntity
  8
2
  6
Continuous
 62
     2
100
AcDbCircle
 10
356.505094
 20
218.128015
 30
0.0
 40
4.753906
100
AcDbArc
 50
305.400856
 51
54.599144
  0
LINE
  5
154
330
1F
100
AcDbEntity
  8
2
  6
Continuous
 62
     2
100
AcDbLine
 10
390.259
 20
214.503015
 30
0.0
 11
389.259
 21
214.503015
 31
0.0
  0
LINE
  5
155
330
1F
100
AcDbEntity
  8
2
  6
Continuous
 62
     2
100
AcDbLine
 10
388.259
 20
214.503015
 30
0.0
 11
387.259
 21
214.503015
 31
0.0
  0
LINE
  5
156
330
1F
100
AcDbEntity
  8
2
  6
Continuous
 62
     2
100
AcDbLine
 10
388.259
 20
198.503015
 30
0.0
 11
387.259
 21
198.503015
 31
0.0
  0
LINE
  5
157
330
1F
100
AcDbEntity
  8
2
  6
Continuous
 62
     2
100
AcDbLine
 10
389.259
 20
214.503015
 30
0.0
 11
389.259
 21
198.503015
 31
0.0
  0
LINE
  5
158
330
1F
100
AcDbEntity
  8
2
  6
Continuous
 62
     2
100
AcDbLine
 10
389.259
 20
214.503015
 30
0.0
 11
388.559
 21
215.603015
 31
0.0
  0
LINE
  5
159
330
1F
100
AcDbEntity
  8
2
  6
Continuous
 62
     2
100
AcDbLine
 10
389.259
 20
198.503015
 30
0.0
 11
388.559
 21
197.403015
 31
0.0
  0
LINE
  5
15A
330
1F
100
AcDbEntity
  8
2
  6
Continuous
 62
     2
100
AcDbLine
 10
391.259
 20
213.503015
 30
0.0
 11
391.259
 21
199.503015
 31
0.0
  0
LINE
  5
15B
330
1F
100
AcDbEntity
  8
2
  6
Continuous
 62
     2
100
AcDbLine
 10
388.559
 20
197.403015
 30
0.0
 11
388.259
 21
197.403015
 31
0.0
  0
LINE
  5
15C
330
1F
100
AcDbEntity
  8
2
  6
Continuous
 62
     2
100
AcDbLine
 10
388.559
 20
215.603015
 30
0.0
 11
388.559
 21
197.403015
 31
0.0
  0
LINE
  5
15D
330
1F
100
AcDbEntity
  8
2
  6
Continuous
 62
     2
100
AcDbLine
 10
388.559
 20
215.603015
 30
0.0
 11
388.259
 21
215.603015
 31
0.0
  0
LINE
  5
15E
330
1F
100
AcDbEntity
  8
2
  6
Continuous
 62
     2
100
AcDbLine
 10
390.259
 20
198.503015
 30
0.0
 11
389.259
 21
198.503015
 31
0.0
  0
LINE
  5
15F
330
1F
100
AcDbEntity
  8
2
  6
Continuous
 62
     2
100
AcDbLine
 10
388.259
 20
215.603015
 30
0.0
 11
388.259
 21
197.403015
 31
0.0
  0
LINE
  5
160
330
1F
100
AcDbEntity
  8
2
  6
Continuous
 62
     2
100
AcDbLine
 10
387.259
 20
213.153015
 30
0.0
 11
385.259
 21
215.153015
 31
0.0
  0
LINE
  5
161
330
1F
100
AcDbEntity
  8
2
  6
Continuous
 62
     2
100
AcDbLine
 10
387.259
 20
199.853015
 30
0.0
 11
385.259
 21
197.853015
 31
0.0
  0
LINE
  5
162
330
1F
100
AcDbEntity
  8
2
  6
Continuous
 62
     2
100
AcDbLine
 10
383.259
 20
213.153015
 30
0.0
 11
387.259
 21
213.153015
 31
0.0
  0
LINE
  5
163
330
1F
100
AcDbEntity
  8
2
  6
Continuous
 62
     2
100
AcDbLine
 10
383.259
 20
199.853015
 30
0.0
 11
387.259
 21
199.853015
 31
0.0
  0
LINE
  5
164
330
1F
100
AcDbEntity
  8
2
  6
Continuous
 62
     2
100
AcDbLine
 10
383.259
 20
215.153015
 30
0.0
 11
385.259
 21
215.153015
 31
0.0
  0
LINE
  5
165
330
1F
100
AcDbEntity
  8
2
  6
Continuous
 62
     2
100
AcDbLine
 10
383.259
 20
197.853015
 30
0.0
 11
385.259
 21
197.853015
 31
0.0
  0
LINE
  5
166
330
1F
100
AcDbEntity
  8
2
  6
Continuous
 62
     2
100
AcDbLine
 10
387.259
 20
198.503015
 30
0.0
 11
387.259
 21
214.503015
 31
0.0
  0
LINE
  5
167
330
1F
100
AcDbEntity
  8
2
  6
Continuous
 62
     2
100
AcDbLine
 10
385.259
 20
197.853015
 30
0.0
 11
385.259
 21
215.153015
 31
0.0
  0
LINE
  5
168
330
1F
100
AcDbEntity
  8
2
  6
Continuous
 62
     2
100
AcDbLine
 10
374.164868
 20
191.003015
 30
0.0
 11
372.259
 21
192.908883
 31
0.0
  0
LINE
  5
169
330
1F
100
AcDbEntity
  8
2
  6
Continuous
 62
     2
100
AcDbLine
 10
381.259
 20
214.253015
 30
0.0
 11
374.259
 21
214.253015
 31
0.0
  0
LINE
  5
16A
330
1F
100
AcDbEntity
  8
2
  6
Continuous
 62
     2
100
AcDbLine
 10
383.259
 20
192.908883
 30
0.0
 11
383.259
 21
220.097148
 31
0.0
  0
LINE
  5
16B
330
1F
100
AcDbEntity
  8
2
  6
Continuous
 62
     2
100
AcDbLine
 10
374.164868
 20
222.003015
 30
0.0
 11
372.259
 21
220.097148
 31
0.0
  0
LINE
  5
16C
330
1F
100
AcDbEntity
  8
2
  6
Continuous
 62
     2
100
AcDbLine
 10
381.353132
 20
222.003015
 30
0.0
 11
383.259
 21
220.097148
 31
0.0
  0
LINE
  5
16D
330
1F
100
AcDbEntity
  8
2
  6
Continuous
 62
     2
100
AcDbLine
 10
381.353132
 20
191.003015
 30
0.0
 11
383.259
 21
192.908883
 31
0.0
  0
LINE
  5
16E
330
1F
100
AcDbEntity
  8
2
  6
Continuous
 62
     2
100
AcDbLine
 10
381.353132
 20
222.003015
 30
0.0
 11
374.164868
 21
222.003015
 31
0.0
  0
LINE
  5
16F
330
1F
100
AcDbEntity
  8
2
  6
Continuous
 62
     2
100
AcDbLine
 10
381.353132
 20
191.003015
 30
0.0
 11
374.164868
 21
191.003015
 31
0.0
  0
LINE
  5
170
330
1F
100
AcDbEntity
  8
2
  6
Continuous
 62
     2
100
AcDbLine
 10
381.259
 20
198.753015
 30
0.0
 11
374.259
 21
198.753015
 31
0.0
  0
LINE
  5
171
330
1F
100
AcDbEntity
  8
2
  6
Continuous
 62
     2
100
AcDbLine
 10
359.353132
 20
222.003015
 30
0.0
 11
361.259
 21
220.097148
 31
0.0
  0
LINE
  5
172
330
1F
100
AcDbEntity
  8
2
  6
Continuous
 62
     2
100
AcDbLine
 10
352.259
 20
214.253015
 30
0.0
 11
359.259
 21
214.253015
 31
0.0
  0
LINE
  5
173
330
1F
100
AcDbEntity
  8
2
  6
Continuous
 62
     2
100
AcDbLine
 10
352.259
 20
198.753015
 30
0.0
 11
359.259
 21
198.753015
 31
0.0
  0
LINE
  5
174
330
1F
100
AcDbEntity
  8
2
  6
Continuous
 62
     2
100
AcDbLine
 10
369.259
 20
221.503015
 30
0.0
 11
372.259
 21
221.503015
 31
0.0
  0
LINE
  5
175
330
1F
100
AcDbEntity
  8
2
  6
Continuous
 62
     2
100
AcDbLine
 10
369.259
 20
191.503015
 30
0.0
 11
372.259
 21
191.503015
 31
0.0
  0
LINE
  5
176
330
1F
100
AcDbEntity
  8
2
  6
Continuous
 62
     2
100
AcDbLine
 10
372.259
 20
191.503015
 30
0.0
 11
372.259
 21
221.503015
 31
0.0
  0
LINE
  5
177
330
1F
100
AcDbEntity
  8
2
  6
Continuous
 62
     2
100
AcDbLine
 10
361.259
 20
221.503015
 30
0.0
 11
364.259
 21
221.503015
 31
0.0
  0
LINE
  5
178
330
1F
100
AcDbEntity
  8
2
  6
Continuous
 62
     2
100
AcDbLine
 10
361.259
 20
191.503015
 30
0.0
 11
364.259
 21
191.503015
 31
0.0
  0
LINE
  5
179
330
1F
100
AcDbEntity
  8
2
  6
Continuous
 62
     2
100
AcDbLine
 10
366.259
 20
190.503015
 30
0.0
 11
413.259
 21
190.503015
 31
0.0
  0
LINE
  5
17A
330
1F
100
AcDbEntity
  8
2
  6
Continuous
 62
     2
100
AcDbLine
 10
366.259
 20
222.503015
 30
0.0
 11
413.259
 21
222.503015
 31
0.0
  0
ARC
  5
17B
330
1F
100
AcDbEntity
  8
2
  6
Continuous
 62
     2
100
AcDbCircle
 10
366.274625
 20
206.503015
 30
0.0
 40
16.015625
100
AcDbArc
 50
151.059412
 51
208.940588
  0
LINE
  5
17C
330
1F
100
AcDbEntity
  8
2
  6
Continuous
 62
     2
100
AcDbLine
 10
364.259
 20
191.503015
 30
0.0
 11
364.259
 21
221.503015
 31
0.0
  0
ARC
  5
17D
330
1F
100
AcDbEntity
  8
2
  6
Continuous
 62
     2
100
AcDbCircle
 10
345.243375
 20
206.503015
 30
0.0
 40
16.015625
100
AcDbArc
 50
331.059412
 51
28.940588
  0
LINE
  5
17E
330
1F
100
AcDbEntity
  8
2
  6
Continuous
 62
     2
100
AcDbLine
 10
366.259
 20
190.503015
 30
0.0
 11
366.259
 21
222.503015
 31
0.0
  0
LINE
  5
17F
330
1F
100
AcDbEntity
  8
2
  6
Continuous
 62
     2
100
AcDbLine
 10
369.259
 20
190.503015
 30
0.0
 11
369.259
 21
222.503015
 31
0.0
  0
LINE
  5
180
330
1F
100
AcDbEntity
  8
2
  6
Continuous
 62
     2
100
AcDbLine
 10
361.259
 20
191.503015
 30
0.0
 11
361.259
 21
221.503015
 31
0.0
  0
ARC
  5
181
330
1F
100
AcDbEntity
  8
2
  6
Continuous
 62
     2
100
AcDbCircle
 10
355.012906
 20
218.128015
 30
0.0
 40
4.753906
100
AcDbArc
 50
125.400856
 51
234.599144
  0
LINE
  5
182
330
1F
100
AcDbEntity
  8
2
  6
Continuous
 62
     2
100
AcDbLine
 10
352.164868
 20
222.003015
 30
0.0
 11
350.259
 21
220.097148
 31
0.0
  0
LINE
  5
183
330
1F
100
AcDbEntity
  8
2
  6
Continuous
 62
     2
100
AcDbLine
 10
352.164868
 20
222.003015
 30
0.0
 11
359.353132
 21
222.003015
 31
0.0
  0
ARC
  5
184
330
1F
100
AcDbEntity
  8
2
  6
Continuous
 62
     2
100
AcDbCircle
 10
355.012906
 20
194.878015
 30
0.0
 40
4.753906
100
AcDbArc
 50
125.400856
 51
234.599144
  0
LINE
  5
185
330
1F
100
AcDbEntity
  8
2
  6
Continuous
 62
     2
100
AcDbLine
 10
352.164868
 20
191.003015
 30
0.0
 11
350.259
 21
192.908883
 31
0.0
  0
ARC
  5
186
330
1F
100
AcDbEntity
  8
2
  6
Continuous
 62
     2
100
AcDbCircle
 10
356.505094
 20
194.878015
 30
0.0
 40
4.753906
100
AcDbArc
 50
305.400856
 51
54.599144
  0
LINE
  5
187
330
1F
100
AcDbEntity
  8
2
  6
Continuous
 62
     2
100
AcDbLine
 10
359.353132
 20
191.003015
 30
0.0
 11
361.259
 21
192.908883
 31
0.0
  0
LINE
  5
188
330
1F
100
AcDbEntity
  8
2
  6
Continuous
 62
     2
100
AcDbLine
 10
352.164868
 20
191.003015
 30
0.0
 11
359.353132
 21
191.003015
 31
0.0
  0
LINE
  5
189
330
1F
100
AcDbEntity
  8
2
  6
Continuous
 62
     2
100
AcDbLine
 10
350.259
 20
192.908883
 30
0.0
 11
350.259
 21
220.097148
 31
0.0
  0
ARC
  5
18B
330
1F
100
AcDbEntity
  8
2
  6
LTYPE2
 62
     3
100
AcDbCircle
 10
376.259
 20
232.503015
 30
0.0
 40
7.0
100
AcDbArc
 50
90.0
 51
180.0
  0
ARC
  5
18C
330
1F
100
AcDbEntity
  8
2
  6
LTYPE2
 62
     3
100
AcDbCircle
 10
376.259
 20
232.503015
 30
0.0
 40
10.0
100
AcDbArc
 50
90.0
 51
180.0
  0
LINE
  5
18D
330
1F
100
AcDbEntity
  8
2
  6
LTYPE2
 62
     3
100
AcDbLine
 10
366.259
 20
232.503015
 30
0.0
 11
366.259
 21
222.503015
 31
0.0
  0
LINE
  5
18E
330
1F
100
AcDbEntity
  8
2
  6
LTYPE2
 62
     3
100
AcDbLine
 10
369.259
 20
232.503015
 30
0.0
 11
369.259
 21
222.503015
 31
0.0
  0
LINE
  5
18F
330
1F
100
AcDbEntity
  8
2
  6
LTYPE2
 62
     3
100
AcDbLine
 10
376.259
 20
239.503015
 30
0.0
 11
429.259
 21
239.503015
 31
0.0
  0
LINE
  5
190
330
1F
100
AcDbEntity
  8
2
  6
LTYPE2
 62
     3
100
AcDbLine
 10
376.259
 20
242.503015
 30
0.0
 11
429.259
 21
242.503015
 31
0.0
  0
LINE
  5
191
330
1F
100
AcDbEntity
  8
2
  6
LTYPE1
 62
     3
100
AcDbLine
 10
393.259
 20
197.003015
 30
0.0
 11
393.259
 21
247.503015
 31
0.0
  0
LINE
  5
192
330
1F
100
AcDbEntity
  8
2
  6
LTYPE1
 62
     3
100
AcDbLine
 10
413.259
 20
197.003015
 30
0.0
 11
413.259
 21
247.503015
 31
0.0
  0
POINT
  5
193
330
1F
100
AcDbEntity
  8
0
  6
Continuous
 62
     3
100
AcDbPoint
 10
487.973803806
 20
206.550772855
 30
0.0
  0
POINT
  5
194
330
1F
100
AcDbEntity
  8
0
  6
Continuous
 62
     3
100
AcDbPoint
 10
487.973803806
 20
207.300772855
 30
0.0
  0
POINT
  5
195
330
1F
100
AcDbEntity
  8
0
  6
Continuous
 62
     3
100
AcDbPoint
 10
487.973803806
 20
205.800772855
 30
0.0
  0
POINT
  5
196
330
1F
100
AcDbEntity
  8
0
  6
Continuous
 62
     3
100
AcDbPoint
 10
487.973803806
 20
206.550772855
 30
0.0
  0
LINE
  5
197
330
1F
100
AcDbEntity
  8
0
  6
Continuous
 62
     3
100
AcDbLine
 10
489.973803806
 20
208.650772855
 30
0.0
 11
489.973803806
 21
204.450772855
 31
0.0
  0
LINE
  5
198
330
1F
100
AcDbEntity
  8
0
  6
Continuous
 62
     3
100
AcDbLine
 10
487.973803806
 20
209.350772855
 30
0.0
 11
487.973803806
 21
203.750772855
 31
0.0
  0
LINE
  5
199
330
1F
100
AcDbEntity
  8
0
  6
Continuous
 62
     3
100
AcDbLine
 10
489.973803806
 20
208.650772855
 30
0.0
 11
487.973803806
 21
209.350772855
 31
0.0
  0
LINE
  5
19A
330
1F
100
AcDbEntity
  8
0
  6
Continuous
 62
     3
100
AcDbLine
 10
489.973803806
 20
204.450772855
 30
0.0
 11
487.973803806
 21
203.750772855
 31
0.0
  0
LINE
  5
19B
330
1F
100
AcDbEntity
  8
0
  6
Continuous
 62
     3
100
AcDbLine
 10
495.473803806
 20
208.650772855
 30
0.0
 11
495.473803806
 21
204.450772855
 31
0.0
  0
LINE
  5
19C
330
1F
100
AcDbEntity
  8
0
  6
Continuous
 62
     3
100
AcDbLine
 10
495.473803806
 20
208.301007193
 30
0.0
 11
510.473803806
 21
208.46767386
 31
0.0
  0
LINE
  5
19D
330
1F
100
AcDbEntity
  8
0
  6
Continuous
 62
     3
100
AcDbLine
 10
495.473803806
 20
206.800538516
 30
0.0
 11
510.473803806
 21
206.967205183
 31
0.0
  0
LINE
  5
19E
330
1F
100
AcDbEntity
  8
0
  6
Continuous
 62
     3
100
AcDbLine
 10
510.473803806
 20
206.134340526
 30
0.0
 11
495.473803806
 21
206.301007193
 31
0.0
  0
LINE
  5
19F
330
1F
100
AcDbEntity
  8
0
  6
Continuous
 62
     3
100
AcDbLine
 10
510.473803806
 20
204.63387185
 30
0.0
 11
495.473803806
 21
204.800538516
 31
0.0
  0
LINE
  5
1A0
330
1F
100
AcDbEntity
  8
0
  6
Continuous
 62
     3
100
AcDbLine
 10
495.473803806
 20
208.650772855
 30
0.0
 11
489.973803806
 21
208.650772855
 31
0.0
  0
LINE
  5
1A1
330
1F
100
AcDbEntity
  8
0
  6
Continuous
 62
     3
100
AcDbLine
 10
495.473803806
 20
204.450772855
 30
0.0
 11
489.973803806
 21
204.450772855
 31
0.0
  0
LINE
  5
1A2
330
1F
100
AcDbEntity
  8
0
  6
Continuous
 62
     7
100
AcDbLine
 10
518.827526645
 20
198.823114943
 30
0.0
 11
517.646332059
 21
198.823114943
 31
0.0
  0
LINE
  5
1A3
330
1F
100
AcDbEntity
  8
0
  6
Continuous
 62
     7
100
AcDbLine
 10
525.520174298
 20
200.177155822
 30
0.0
 11
524.843515902
 21
199.93096653
 31
0.0
  0
LINE
  5
1A4
330
1F
100
AcDbEntity
  8
0
  6
Continuous
 62
     7
100
AcDbLine
 10
525.889260718
 20
200.484892548
 30
0.0
 11
525.520174298
 21
200.177155822
 31
0.0
  0
LINE
  5
1A5
330
1F
100
AcDbEntity
  8
0
  6
Continuous
 62
     7
100
AcDbLine
 10
526.073803806
 20
201.040603618
 30
0.0
 11
525.889260718
 21
200.484892548
 31
0.0
  0
LINE
  5
1A6
330
1F
100
AcDbEntity
  8
0
  6
Continuous
 62
     7
100
AcDbLine
 10
522.868021153
 20
200.857024912
 30
0.0
 11
522.935181865
 21
201.040603618
 31
0.0
  0
LINE
  5
1A7
330
1F
100
AcDbEntity
  8
0
  6
Continuous
 62
     7
100
AcDbLine
 10
522.721269293
 20
200.761855333
 30
0.0
 11
522.868021153
 21
200.857024912
 31
0.0
  0
LINE
  5
1A8
330
1F
100
AcDbEntity
  8
0
  6
Continuous
 62
     7
100
AcDbLine
 10
522.721269293
 20
200.761855333
 30
0.0
 11
520.076150399
 21
200.454119054
 31
0.0
  0
LINE
  5
1A9
330
1F
100
AcDbEntity
  8
0
  6
Continuous
 62
     7
100
AcDbLine
 10
525.274116767
 20
203.100653825
 30
0.0
 11
521.214166881
 21
203.100653825
 31
0.0
  0
LINE
  5
1AA
330
1F
100
AcDbEntity
  8
0
  6
Continuous
 62
     7
100
AcDbLine
 10
524.843515902
 20
199.93096653
 30
0.0
 11
519.737821446
 21
199.407814454
 31
0.0
  0
LINE
  5
1AB
330
1F
100
AcDbEntity
  8
0
  6
Continuous
 62
     7
100
AcDbLine
 10
525.274116767
 20
210.190430654
 30
0.0
 11
521.214166881
 21
210.190430654
 31
0.0
  0
LINE
  5
1AC
330
1F
100
AcDbEntity
  8
0
  6
Continuous
 62
     7
100
AcDbLine
 10
520.445236819
 20
211.390603618
 30
0.0
 11
520.445236819
 21
201.040603618
 31
0.0
  0
LINE
  5
1AD
330
1F
100
AcDbEntity
  8
0
  6
Continuous
 62
     7
100
AcDbLine
 10
526.073803806
 20
211.390603618
 30
0.0
 11
526.073803806
 21
201.040603618
 31
0.0
  0
LINE
  5
1AE
330
1F
100
AcDbEntity
  8
0
  6
Continuous
 62
     7
100
AcDbLine
 10
525.274116767
 20
210.190430654
 30
0.0
 11
525.274116767
 21
203.100653825
 31
0.0
  0
LINE
  5
1AF
330
1F
100
AcDbEntity
  8
0
  6
Continuous
 62
     7
100
AcDbLine
 10
521.214166881
 20
210.190430654
 30
0.0
 11
521.214166881
 21
203.100653825
 31
0.0
  0
LINE
  5
1B0
330
1F
100
AcDbEntity
  8
0
  6
Continuous
 62
     7
100
AcDbLine
 10
519.676307002
 20
209.544183708
 30
0.0
 11
519.676307002
 21
203.593032408
 31
0.0
  0
LINE
  5
1B1
330
1F
100
AcDbEntity
  8
0
  6
Continuous
 62
     7
100
AcDbLine
 10
520.445236819
 20
210.775130165
 30
0.0
 11
520.445236819
 21
202.300538516
 31
0.0
  0
LINE
  5
1B2
330
1F
100
AcDbEntity
  8
0
  6
Continuous
 62
     7
100
AcDbLine
 10
512.755937667
 20
200.454119054
 30
0.0
 11
510.473803806
 21
200.018364015
 31
0.0
  0
LINE
  5
1B3
330
1F
100
AcDbEntity
  8
0
  6
Continuous
 62
     7
100
AcDbLine
 10
511.973600872
 20
211.729113837
 30
0.0
 11
510.473803806
 21
211.729113837
 31
0.0
  0
LINE
  5
1B4
330
1F
100
AcDbEntity
  8
0
  6
Continuous
 62
     7
100
AcDbLine
 10
511.973600872
 20
211.729113837
 30
0.0
 11
512.251204156
 21
211.390603618
 31
0.0
  0
LINE
  5
1B5
330
1F
100
AcDbEntity
  8
0
  6
Continuous
 62
     7
100
AcDbLine
 10
510.473803806
 20
211.729113837
 30
0.0
 11
510.473803806
 21
201.040603618
 31
0.0
  0
LINE
  5
1B6
330
1F
100
AcDbEntity
  8
0
  6
Continuous
 62
     7
100
AcDbLine
 10
511.095049145
 20
209.544183708
 30
0.0
 11
511.095049145
 21
203.593032408
 31
0.0
  0
LINE
  5
1B7
330
1F
100
AcDbEntity
  8
0
  6
Continuous
 62
     7
100
AcDbLine
 10
526.073803806
 20
211.390603618
 30
0.0
 11
512.251204156
 21
211.390603618
 31
0.0
  0
LINE
  5
1B8
330
1F
100
AcDbEntity
  8
0
  6
Continuous
 62
     7
100
AcDbLine
 10
520.445236819
 20
210.775130165
 30
0.0
 11
510.473803806
 21
210.775130165
 31
0.0
  0
LINE
  5
1B9
330
1F
100
AcDbEntity
  8
0
  6
Continuous
 62
     7
100
AcDbLine
 10
519.676307002
 20
209.544183708
 30
0.0
 11
511.095049145
 21
209.544183708
 31
0.0
  0
LINE
  5
1BA
330
1F
100
AcDbEntity
  8
0
  6
Continuous
 62
     7
100
AcDbLine
 10
519.676307002
 20
203.593032408
 30
0.0
 11
511.095049145
 21
203.593032408
 31
0.0
  0
LINE
  5
1BB
330
1F
100
AcDbEntity
  8
0
  6
Continuous
 62
     7
100
AcDbLine
 10
520.445236819
 20
202.300538516
 30
0.0
 11
510.473803806
 21
202.300538516
 31
0.0
  0
LINE
  5
1BC
330
1F
100
AcDbEntity
  8
0
  6
Continuous
 62
     7
100
AcDbLine
 10
519.737821446
 20
199.407814454
 30
0.0
 11
513.832439706
 21
199.407814454
 31
0.0
  0
LINE
  5
1BD
330
1F
100
AcDbEntity
  8
0
  6
Continuous
 62
     7
100
AcDbLine
 10
520.076150399
 20
200.454119054
 30
0.0
 11
512.755937667
 21
200.454119054
 31
0.0
  0
LINE
  5
1BE
330
1F
100
AcDbEntity
  8
0
  6
Continuous
 62
     7
100
AcDbLine
 10
526.073803806
 20
201.040603618
 30
0.0
 11
510.473803806
 21
201.040603618
 31
0.0
  0
LINE
  5
1BF
330
1F
100
AcDbEntity
  8
0
  6
Continuous
 62
     7
100
AcDbLine
 10
519.737821446
 20
199.407814454
 30
0.0
 11
518.827526645
 21
198.823114943
 31
0.0
  0
LINE
  5
1C0
330
1F
100
AcDbEntity
  8
0
  6
Continuous
 62
     7
100
AcDbLine
 10
513.832439706
 20
199.407814454
 30
0.0
 11
510.473803806
 21
198.823114943
 31
0.0
  0
LINE
  5
1C1
330
1F
100
AcDbEntity
  8
0
  6
Continuous
 62
     7
100
AcDbLine
 10
510.473803806
 20
200.018364015
 30
0.0
 11
510.473803806
 21
198.823114943
 31
0.0
  0
LINE
  5
1C2
330
1F
100
AcDbEntity
  8
0
  6
Continuous
 62
     7
100
AcDbLine
 10
517.646332059
 20
199.407814454
 30
0.0
 11
517.646332059
 21
198.823114943
 31
0.0
  0
LINE
  5
1C3
330
1F
100
AcDbEntity
  8
0
  6
Continuous
 62
     3
100
AcDbLine
 10
28.4
 20
186.5
 30
0.0
 11
18.0
 21
186.5
 31
0.0
  0
LINE
  5
1C4
330
1F
100
AcDbEntity
  8
0
  6
Continuous
 62
     3
100
AcDbLine
 10
20.0
 20
186.5
 30
0.0
 11
20.647047613
 21
188.914814566
 31
0.0
  0
LINE
  5
1C5
330
1F
100
AcDbEntity
  8
0
  6
Continuous
 62
     3
100
AcDbLine
 10
20.0
 20
186.5
 30
0.0
 11
19.352952387
 21
188.914814566
 31
0.0
  0
LINE
  5
1C6
330
1F
100
AcDbEntity
  8
0
  6
Continuous
 62
     3
100
AcDbLine
 10
20.0
 20
186.5
 30
0.0
 11
20.0
 21
226.5
 31
0.0
  0
LINE
  5
1C7
330
1F
100
AcDbEntity
  8
0
  6
Continuous
 62
     3
100
AcDbLine
 10
20.0
 20
226.5
 30
0.0
 11
19.352952387
 21
224.085185434
 31
0.0
  0
LINE
  5
1C8
330
1F
100
AcDbEntity
  8
0
  6
Continuous
 62
     3
100
AcDbLine
 10
20.0
 20
226.5
 30
0.0
 11
20.647047613
 21
224.085185434
 31
0.0
  0
LINE
  5
1C9
330
1F
100
AcDbEntity
  8
0
  6
Continuous
 62
     3
100
AcDbLine
 10
28.3
 20
226.5
 30
0.0
 11
18.0
 21
226.5
 31
0.0
  0
MTEXT
  5
1CA
330
1F
100
AcDbEntity
  8
0
  6
Continuous
 62
     3
100
AcDbMText
 10
19.0
 20
203.5
 30
0.0
 40
3.0
 41
12.0024
 71
     7
 72
     1
  1
\T1.167;\W0.600;φ４０
  7
KANJI3
 11
0.0
 21
1.0
 31
0.0
 73
     1
 44
1.0
  0
LINE
  5
1CC
330
1F
100
AcDbEntity
  8
0
  6
Continuous
 62
     3
100
AcDbLine
 10
111.3
 20
191.4
 30
0.0
 11
111.3
 21
170.0
 31
0.0
  0
LINE
  5
1CD
330
1F
100
AcDbEntity
  8
0
  6
Continuous
 62
     3
100
AcDbLine
 10
111.3
 20
172.0
 30
0.0
 11
108.885185434
 21
172.647047613
 31
0.0
  0
LINE
  5
1CE
330
1F
100
AcDbEntity
  8
0
  6
Continuous
 62
     3
100
AcDbLine
 10
111.3
 20
172.0
 30
0.0
 11
108.885185434
 21
171.352952387
 31
0.0
  0
LINE
  5
1CF
330
1F
100
AcDbEntity
  8
0
  6
Continuous
 62
     3
100
AcDbLine
 10
111.3
 20
172.0
 30
0.0
 11
25.8
 21
172.0
 31
0.0
  0
LINE
  5
1D0
330
1F
100
AcDbEntity
  8
0
  6
Continuous
 62
     3
100
AcDbLine
 10
25.8
 20
172.0
 30
0.0
 11
28.214814566
 21
171.352952387
 31
0.0
  0
LINE
  5
1D1
330
1F
100
AcDbEntity
  8
0
  6
Continuous
 62
     3
100
AcDbLine
 10
25.8
 20
172.0
 30
0.0
 11
28.214814566
 21
172.647047613
 31
0.0
  0
LINE
  5
1D2
330
1F
100
AcDbEntity
  8
0
  6
Continuous
 62
     3
100
AcDbLine
 10
25.8
 20
197.6
 30
0.0
 11
25.8
 21
170.0
 31
0.0
  0
MTEXT
  5
1D3
330
1F
100
AcDbEntity
  8
0
  6
Continuous
 62
     3
100
AcDbMText
 10
64.5
 20
173.0
 30
0.0
 40
3.0
 41
16.2036
 71
     7
 72
     1
  1
\T1.167;\W0.600;８５．５
  7
KANJI3
 73
     1
 44
1.0
  0
LINE
  5
1D4
330
1F
100
AcDbEntity
  8
0
  6
Continuous
 62
     3
100
AcDbLine
 10
111.3
 20
191.0
 30
0.0
 11
111.3
 21
170.0
 31
0.0
  0
LINE
  5
1D5
330
1F
100
AcDbEntity
  8
0
  6
Continuous
 62
     3
100
AcDbLine
 10
111.3
 20
172.0
 30
0.0
 11
113.714814566
 21
171.352952387
 31
0.0
  0
LINE
  5
1D6
330
1F
100
AcDbEntity
  8
0
  6
Continuous
 62
     3
100
AcDbLine
 10
111.3
 20
172.0
 30
0.0
 11
113.714814566
 21
172.647047613
 31
0.0
  0
LINE
  5
1D7
330
1F
100
AcDbEntity
  8
0
  6
Continuous
 62
     3
100
AcDbLine
 10
510.573803806
 20
171.950771855
 30
0.0
 11
508.15898924
 21
172.597819467
 31
0.0
  0
LINE
  5
1D8
330
1F
100
AcDbEntity
  8
0
  6
Continuous
 62
     3
100
AcDbLine
 10
510.573803806
 20
171.950771855
 30
0.0
 11
508.15898924
 21
171.303724242
 31
0.0
  0
LINE
  5
1D9
330
1F
100
AcDbEntity
  8
0
  6
Continuous
 62
     3
100
AcDbLine
 10
391.599239772
 20
171.950771855
 30
0.0
 11
394.014054338
 21
171.303724242
 31
0.0
  0
LINE
  5
1DA
330
1F
100
AcDbEntity
  8
0
  6
Continuous
 62
     3
100
AcDbLine
 10
391.599239772
 20
171.950771855
 30
0.0
 11
394.014054338
 21
172.597819467
 31
0.0
  0
LINE
  5
1DB
330
1F
100
AcDbEntity
  8
0
  6
Continuous
 62
     3
100
AcDbLine
 10
510.573803806
 20
171.950771855
 30
0.0
 11
391.599239772
 21
171.950771855
 31
0.0
  0
MTEXT
  5
1DC
330
1F
100
AcDbEntity
  8
0
  6
Continuous
 62
     3
100
AcDbMText
 10
447.036521789
 20
172.950771855
 30
0.0
 40
3.0
 41
16.2036
 71
     7
 72
     1
  1
\T1.167;\W0.600;１０００
  7
KANJI3
 73
     1
 44
1.0
  0
LINE
  5
1DD
330
1F
100
AcDbEntity
  8
0
  6
Continuous
 62
     3
100
AcDbLine
 10
366.3
 20
172.0
 30
0.0
 11
363.885185434
 21
172.647047613
 31
0.0
  0
LINE
  5
1DE
330
1F
100
AcDbEntity
  8
0
  6
Continuous
 62
     3
100
AcDbLine
 10
366.3
 20
172.0
 30
0.0
 11
363.885185434
 21
171.352952387
 31
0.0
  0
LINE
  5
1DF
330
1F
100
AcDbEntity
  8
0
  6
Continuous
 62
     3
100
AcDbLine
 10
366.3
 20
188.8
 30
0.0
 11
366.3
 21
170.0
 31
0.0
  0
MTEXT
  5
1E0
330
1F
100
AcDbEntity
  8
0
  6
Continuous
 62
     3
100
AcDbMText
 10
235.8
 20
173.0
 30
0.0
 40
3.0
 41
12.0024
 71
     7
 72
     1
  1
\T1.167;\W0.600;２５５
  7
KANJI3
 73
     1
 44
1.0
  0
LINE
  5
1E1
330
1F
100
AcDbEntity
  8
0
  6
Continuous
 62
     3
100
AcDbLine
 10
111.3
 20
172.0
 30
0.0
 11
366.3
 21
172.0
 31
0.0
  0
LINE
  5
1E2
330
1F
100
AcDbEntity
  8
0
  6
Continuous
 62
     3
100
AcDbLine
 10
391.599239772
 20
197.2
 30
0.0
 11
391.599239772
 21
169.950771855
 31
0.0
  0
LINE
  5
1E3
330
1F
100
AcDbEntity
  8
0
  6
Continuous
 62
     3
100
AcDbLine
 10
510.573803806
 20
197.2
 30
0.0
 11
510.573803806
 21
169.950771855
 31
0.0
  0
MTEXT
  5
1E4
330
1F
100
AcDbEntity
  8
0
  6
Continuous
 62
     3
100
AcDbMText
 10
62.0
 20
247.23
 30
0.0
 40
5.0
 41
29.3976
 71
     7
 72
     1
  1
\T1.111;\W0.540;積層表示灯
  7
KANJI4
 73
     1
 44
1.0
  0
MTEXT
  5
1E6
330
1F
100
AcDbEntity
  8
0
  6
Continuous
 62
     3
100
AcDbMText
 10
62.0
 20
238.23
 30
0.0
 40
5.0
 41
107.3898
 71
     7
 72
     1
  1
\T1.111;\W0.540;ＬＯＵＴ－２４－１－Ｒ　＜デジタル＞
  7
KANJI4
 73
     1
 44
1.0
  0
LINE
  5
1E7
330
1F
100
AcDbEntity
  8
0
  6
Continuous
 62
     2
100
AcDbLine
 10
457.099239772
 20
211.950772855
 30
0.0
 11
454.432573106
 21
207.950772855
 31
0.0
  0
LINE
  5
1E8
330
1F
100
AcDbEntity
  8
0
  6
Continuous
 62
     2
100
AcDbLine
 10
459.099239772
 20
211.950772855
 30
0.0
 11
456.432573106
 21
207.950772855
 31
0.0
  0
LINE
  5
1E9
330
1F
100
AcDbEntity
  8
0
  6
Continuous
 62
     2
100
AcDbLine
 10
457.715018866
 20
205.350772855
 30
0.0
 11
455.048352199
 21
201.350772855
 31
0.0
  0
LINE
  5
1EA
330
1F
100
AcDbEntity
  8
0
  6
Continuous
 62
     2
100
AcDbLine
 10
459.715018866
 20
205.350772855
 30
0.0
 11
457.048352199
 21
201.350772855
 31
0.0
  0
LINE
  5
1EB
330
1F
100
AcDbEntity
  8
0
  6
Continuous
 62
     2
100
AcDbLine
 10
454.432573106
 20
207.950772855
 30
0.0
 11
457.715018866
 21
205.350772855
 31
0.0
  0
LINE
  5
1EC
330
1F
100
AcDbEntity
  8
0
  6
Continuous
 62
     2
100
AcDbLine
 10
456.432573106
 20
207.950772855
 30
0.0
 11
459.715018866
 21
205.350772855
 31
0.0
  0
LINE
  5
1ED
330
1F
100
AcDbEntity
  8
0
  6
Continuous
 62
     3
100
AcDbLine
 10
391.3
 20
208.850772855
 30
0.0
 11
454.9
 21
208.850772855
 31
0.0
  0
LINE
  5
1EE
330
1F
100
AcDbEntity
  8
0
  6
Continuous
 62
     3
100
AcDbLine
 10
391.3
 20
204.250772855
 30
0.0
 11
456.8
 21
204.250772855
 31
0.0
  0
LINE
  5
1EF
330
1F
100
AcDbEntity
  8
0
  6
Continuous
 62
     3
100
AcDbLine
 10
470.473803806
 20
208.850772855
 30
0.0
 11
480.473803806
 21
208.850772855
 31
0.0
  0
LINE
  5
1F0
330
1F
100
AcDbEntity
  8
0
  6
Continuous
 62
     3
100
AcDbLine
 10
457.2
 20
208.850772855
 30
0.0
 11
480.473803806
 21
208.850772855
 31
0.0
  0
LINE
  5
1F1
330
1F
100
AcDbEntity
  8
0
  6
Continuous
 62
     3
100
AcDbLine
 10
487.973803806
 20
209.350772855
 30
0.0
 11
480.473803806
 21
209.350772855
 31
0.0
  0
LINE
  5
1F2
330
1F
100
AcDbEntity
  8
0
  6
Continuous
 62
     3
100
AcDbLine
 10
470.473803806
 20
204.250772855
 30
0.0
 11
480.473803806
 21
204.250772855
 31
0.0
  0
LINE
  5
1F3
330
1F
100
AcDbEntity
  8
0
  6
Continuous
 62
     3
100
AcDbLine
 10
459.2
 20
204.250772855
 30
0.0
 11
480.473803806
 21
204.250772855
 31
0.0
  0
LINE
  5
1F4
330
1F
100
AcDbEntity
  8
0
  6
Continuous
 62
     3
100
AcDbLine
 10
480.473803806
 20
209.350772855
 30
0.0
 11
480.473803806
 21
204.250772855
 31
0.0
  0
LINE
  5
1F5
330
1F
100
AcDbEntity
  8
0
  6
Continuous
 62
     3
100
AcDbLine
 10
480.473803806
 20
208.850772855
 30
0.0
 11
480.473803806
 21
203.750772855
 31
0.0
  0
LINE
  5
1F6
330
1F
100
AcDbEntity
  8
0
  6
Continuous
 62
     3
100
AcDbLine
 10
487.973803806
 20
203.750772855
 30
0.0
 11
480.473803806
 21
203.750772855
 31
0.0
  0
LINE
  5
1F7
330
1F
100
AcDbEntity
  8
0
  6
LTYPE1
 62
     3
100
AcDbLine
 10
388.759
 20
206.503015
 30
0.0
 11
397.759
 21
206.503015
 31
0.0
  0
LINE
  5
1F8
330
1F
100
AcDbEntity
  8
0
  6
LTYPE1
 62
     3
100
AcDbLine
 10
393.259
 20
202.003015
 30
0.0
 11
393.259
 21
211.003015
 31
0.0
  0
LINE
  5
1F9
330
1F
100
AcDbEntity
  8
0
  6
LTYPE1
 62
     3
100
AcDbLine
 10
408.759
 20
206.503015
 30
0.0
 11
417.759
 21
206.503015
 31
0.0
  0
LINE
  5
1FA
330
1F
100
AcDbEntity
  8
0
  6
LTYPE1
 62
     3
100
AcDbLine
 10
413.259
 20
202.003015
 30
0.0
 11
413.259
 21
211.003015
 31
0.0
  0
LINE
  5
1FB
330
1F
100
AcDbEntity
  8
2
  6
LTYPE2
 62
     3
100
AcDbLine
 10
429.259
 20
242.503015
 30
0.0
 11
429.259
 21
239.503015
 31
0.0
  0
LINE
  5
1FC
330
1F
100
AcDbEntity
  8
0
  6
Continuous
 62
     3
100
AcDbLine
 10
366.3
 20
238.9
 30
0.0
 11
366.3
 21
253.2
 31
0.0
  0
LINE
  5
1FD
330
1F
100
AcDbEntity
  8
0
  6
Continuous
 62
     3
100
AcDbLine
 10
366.3
 20
251.2
 30
0.0
 11
368.714814566
 21
250.552952387
 31
0.0
  0
LINE
  5
1FE
330
1F
100
AcDbEntity
  8
0
  6
Continuous
 62
     3
100
AcDbLine
 10
366.3
 20
251.2
 30
0.0
 11
368.714814566
 21
251.847047613
 31
0.0
  0
LINE
  5
1FF
330
1F
100
AcDbEntity
  8
0
  6
Continuous
 62
     3
100
AcDbLine
 10
366.3
 20
251.2
 30
0.0
 11
393.3
 21
251.2
 31
0.0
  0
LINE
  5
200
330
1F
100
AcDbEntity
  8
0
  6
Continuous
 62
     3
100
AcDbLine
 10
393.3
 20
251.2
 30
0.0
 11
390.885185434
 21
251.847047613
 31
0.0
  0
LINE
  5
201
330
1F
100
AcDbEntity
  8
0
  6
Continuous
 62
     3
100
AcDbLine
 10
393.3
 20
251.2
 30
0.0
 11
390.885185434
 21
250.552952387
 31
0.0
  0
LINE
  5
202
330
1F
100
AcDbEntity
  8
0
  6
Continuous
 62
     3
100
AcDbLine
 10
393.3
 20
248.9
 30
0.0
 11
393.3
 21
253.2
 31
0.0
  0
MTEXT
  5
203
330
1F
100
AcDbEntity
  8
0
  6
Continuous
 62
     3
100
AcDbMText
 10
377.85
 20
252.2
 30
0.0
 40
3.0
 41
7.8012
 71
     7
 72
     1
  1
\T1.167;\W0.600;２７
  7
KANJI3
 73
     1
 44
1.0
  0
LINE
  5
204
330
1F
100
AcDbEntity
  8
0
  6
Continuous
 62
     3
100
AcDbLine
 10
393.3
 20
248.8
 30
0.0
 11
393.3
 21
253.2
 31
0.0
  0
LINE
  5
205
330
1F
100
AcDbEntity
  8
0
  6
Continuous
 62
     3
100
AcDbLine
 10
393.3
 20
251.2
 30
0.0
 11
395.714814566
 21
250.552952387
 31
0.0
  0
LINE
  5
206
330
1F
100
AcDbEntity
  8
0
  6
Continuous
 62
     3
100
AcDbLine
 10
393.3
 20
251.2
 30
0.0
 11
395.714814566
 21
251.847047613
 31
0.0
  0
LINE
  5
207
330
1F
100
AcDbEntity
  8
0
  6
Continuous
 62
     3
100
AcDbLine
 10
393.3
 20
251.2
 30
0.0
 11
413.3
 21
251.2
 31
0.0
  0
LINE
  5
208
330
1F
100
AcDbEntity
  8
0
  6
Continuous
 62
     3
100
AcDbLine
 10
413.3
 20
251.2
 30
0.0
 11
410.885185434
 21
251.847047613
 31
0.0
  0
LINE
  5
209
330
1F
100
AcDbEntity
  8
0
  6
Continuous
 62
     3
100
AcDbLine
 10
413.3
 20
251.2
 30
0.0
 11
410.885185434
 21
250.552952387
 31
0.0
  0
LINE
  5
20A
330
1F
100
AcDbEntity
  8
0
  6
Continuous
 62
     3
100
AcDbLine
 10
413.3
 20
248.8
 30
0.0
 11
413.3
 21
253.2
 31
0.0
  0
MTEXT
  5
20B
330
1F
100
AcDbEntity
  8
0
  6
Continuous
 62
     3
100
AcDbMText
 10
401.35
 20
252.2
 30
0.0
 40
3.0
 41
7.8012
 71
     7
 72
     1
  1
\T1.167;\W0.600;２０
  7
KANJI3
 73
     1
 44
1.0
  0
LINE
  5
20C
330
1F
100
AcDbEntity
  8
0
  6
Continuous
 62
     3
100
AcDbLine
 10
366.3
 20
239.1
 30
0.0
 11
366.3
 21
261.6
 31
0.0
  0
LINE
  5
20D
330
1F
100
AcDbEntity
  8
0
  6
Continuous
 62
     3
100
AcDbLine
 10
366.3
 20
259.6
 30
0.0
 11
368.714814566
 21
258.952952387
 31
0.0
  0
LINE
  5
20E
330
1F
100
AcDbEntity
  8
0
  6
Continuous
 62
     3
100
AcDbLine
 10
366.3
 20
259.6
 30
0.0
 11
368.714814566
 21
260.247047613
 31
0.0
  0
LINE
  5
20F
330
1F
100
AcDbEntity
  8
0
  6
Continuous
 62
     3
100
AcDbLine
 10
366.3
 20
259.6
 30
0.0
 11
429.3
 21
259.6
 31
0.0
  0
LINE
  5
210
330
1F
100
AcDbEntity
  8
0
  6
Continuous
 62
     3
100
AcDbLine
 10
429.3
 20
259.6
 30
0.0
 11
426.885185434
 21
260.247047613
 31
0.0
  0
LINE
  5
211
330
1F
100
AcDbEntity
  8
0
  6
Continuous
 62
     3
100
AcDbLine
 10
429.3
 20
259.6
 30
0.0
 11
426.885185434
 21
258.952952387
 31
0.0
  0
LINE
  5
212
330
1F
100
AcDbEntity
  8
0
  6
Continuous
 62
     3
100
AcDbLine
 10
429.3
 20
244.5
 30
0.0
 11
429.3
 21
261.6
 31
0.0
  0
MTEXT
  5
213
330
1F
100
AcDbEntity
  8
0
  6
Continuous
 62
     3
100
AcDbMText
 10
395.85
 20
260.6
 30
0.0
 40
3.0
 41
7.8012
 71
     7
 72
     1
  1
\T1.167;\W0.600;６３
  7
KANJI3
 73
     1
 44
1.0
  0
LINE
  5
214
330
1F
100
AcDbEntity
  8
0
  6
Continuous
 62
     3
100
AcDbLine
 10
430.6
 20
239.5
 30
0.0
 11
435.4
 21
239.5
 31
0.0
  0
LINE
  5
215
330
1F
100
AcDbEntity
  8
0
  6
Continuous
 62
     3
100
AcDbLine
 10
433.4
 20
239.5
 30
0.0
 11
432.752952387
 21
237.085185434
 31
0.0
  0
LINE
  5
216
330
1F
100
AcDbEntity
  8
0
  6
Continuous
 62
     3
100
AcDbLine
 10
433.4
 20
239.5
 30
0.0
 11
434.047047613
 21
237.085185434
 31
0.0
  0
LINE
  5
217
330
1F
100
AcDbEntity
  8
0
  6
Continuous
 62
     3
100
AcDbLine
 10
433.4
 20
239.5
 30
0.0
 11
433.4
 21
242.5
 31
0.0
  0
LINE
  5
218
330
1F
100
AcDbEntity
  8
0
  6
Continuous
 62
     3
100
AcDbLine
 10
433.4
 20
242.5
 30
0.0
 11
433.4
 21
246.25
 31
0.0
  0
LINE
  5
219
330
1F
100
AcDbEntity
  8
0
  6
Continuous
 62
     3
100
AcDbLine
 10
433.4
 20
242.5
 30
0.0
 11
434.047047613
 21
244.914814566
 31
0.0
  0
LINE
  5
21A
330
1F
100
AcDbEntity
  8
0
  6
Continuous
 62
     3
100
AcDbLine
 10
433.4
 20
242.5
 30
0.0
 11
432.752952387
 21
244.914814566
 31
0.0
  0
LINE
  5
21B
330
1F
100
AcDbEntity
  8
0
  6
Continuous
 62
     3
100
AcDbLine
 10
430.7
 20
242.5
 30
0.0
 11
435.4
 21
242.5
 31
0.0
  0
MTEXT
  5
21C
330
1F
100
AcDbEntity
  8
0
  6
Continuous
 62
     3
100
AcDbMText
 10
432.4
 20
234.1
 30
0.0
 40
3.0
 41
3.6
 71
     7
 72
     1
  1
\T1.167;\W0.600;３
  7
KANJI3
 11
0.0
 21
1.0
 31
0.0
 73
     1
 44
1.0
  0
LINE
  5
21D
330
1F
100
AcDbEntity
  8
0
  6
Continuous
 62
     3
100
AcDbLine
 10
433.4
 20
233.8
 30
0.0
 11
433.4
 21
239.5
 31
0.0
  0
LINE
  5
21E
330
1F
100
AcDbEntity
  8
0
  6
Continuous
 62
     3
100
AcDbLine
 10
442.2
 20
242.5
 30
0.0
 11
441.552952387
 21
240.085185434
 31
0.0
  0
LINE
  5
21F
330
1F
100
AcDbEntity
  8
0
  6
Continuous
 62
     3
100
AcDbLine
 10
442.2
 20
242.5
 30
0.0
 11
442.847047613
 21
240.085185434
 31
0.0
  0
LINE
  5
220
330
1F
100
AcDbEntity
  8
0
  6
Continuous
 62
     3
100
AcDbLine
 10
431.8
 20
242.5
 30
0.0
 11
444.2
 21
242.5
 31
0.0
  0
MTEXT
  5
221
330
1F
100
AcDbEntity
  8
0
  6
Continuous
 62
     3
100
AcDbMText
 10
441.2
 20
222.55
 30
0.0
 40
3.0
 41
7.8012
 71
     7
 72
     1
  1
\T1.167;\W0.600;３６
  7
KANJI3
 11
0.0
 21
1.0
 31
0.0
 73
     1
 44
1.0
  0
LINE
  5
222
330
1F
100
AcDbEntity
  8
0
  6
Continuous
 62
     3
100
AcDbLine
 10
450.2
 20
242.5
 30
0.0
 11
449.552952387
 21
240.085185434
 31
0.0
  0
LINE
  5
223
330
1F
100
AcDbEntity
  8
0
  6
Continuous
 62
     3
100
AcDbLine
 10
450.2
 20
242.5
 30
0.0
 11
450.847047613
 21
240.085185434
 31
0.0
  0
LINE
  5
224
330
1F
100
AcDbEntity
  8
0
  6
Continuous
 62
     3
100
AcDbLine
 10
432.2
 20
242.5
 30
0.0
 11
452.2
 21
242.5
 31
0.0
  0
MTEXT
  5
225
330
1F
100
AcDbEntity
  8
0
  6
Continuous
 62
     3
100
AcDbMText
 10
449.2
 20
214.55
 30
0.0
 40
3.0
 41
7.8012
 71
     7
 72
     1
  1
\T1.167;\W0.600;５２
  7
KANJI3
 11
0.0
 21
1.0
 31
0.0
 73
     1
 44
1.0
  0
LINE
  5
226
330
1F
100
AcDbEntity
  8
0
  6
Continuous
 62
     3
100
AcDbLine
 10
433.4
 20
222.5
 30
0.0
 11
432.752952387
 21
220.085185434
 31
0.0
  0
LINE
  5
227
330
1F
100
AcDbEntity
  8
0
  6
Continuous
 62
     3
100
AcDbLine
 10
433.4
 20
222.5
 30
0.0
 11
434.047047613
 21
220.085185434
 31
0.0
  0
LINE
  5
228
330
1F
100
AcDbEntity
  8
0
  6
Continuous
 62
     3
100
AcDbLine
 10
417.9
 20
222.5
 30
0.0
 11
435.4
 21
222.5
 31
0.0
  0
MTEXT
  5
229
330
1F
100
AcDbEntity
  8
0
  6
Continuous
 62
     3
100
AcDbMText
 10
432.4
 20
213.55
 30
0.0
 40
3.0
 41
7.8012
 71
     7
 72
     1
  1
\T1.167;\W0.600;３２
  7
KANJI3
 11
0.0
 21
1.0
 31
0.0
 73
     1
 44
1.0
  0
LINE
  5
22A
330
1F
100
AcDbEntity
  8
0
  6
Continuous
 62
     3
100
AcDbLine
 10
419.1
 20
206.5
 30
0.0
 11
444.2
 21
206.5
 31
0.0
  0
LINE
  5
22B
330
1F
100
AcDbEntity
  8
0
  6
Continuous
 62
     3
100
AcDbLine
 10
442.2
 20
206.5
 30
0.0
 11
442.847047613
 21
208.914814566
 31
0.0
  0
LINE
  5
22C
330
1F
100
AcDbEntity
  8
0
  6
Continuous
 62
     3
100
AcDbLine
 10
442.2
 20
206.5
 30
0.0
 11
441.552952387
 21
208.914814566
 31
0.0
  0
LINE
  5
22D
330
1F
100
AcDbEntity
  8
0
  6
Continuous
 62
     3
100
AcDbLine
 10
442.2
 20
206.5
 30
0.0
 11
442.2
 21
242.5
 31
0.0
  0
LINE
  5
22E
330
1F
100
AcDbEntity
  8
0
  6
Continuous
 62
     3
100
AcDbLine
 10
417.8
 20
190.5
 30
0.0
 11
435.4
 21
190.5
 31
0.0
  0
LINE
  5
22F
330
1F
100
AcDbEntity
  8
0
  6
Continuous
 62
     3
100
AcDbLine
 10
433.4
 20
190.5
 30
0.0
 11
434.047047613
 21
192.914814566
 31
0.0
  0
LINE
  5
230
330
1F
100
AcDbEntity
  8
0
  6
Continuous
 62
     3
100
AcDbLine
 10
433.4
 20
190.5
 30
0.0
 11
432.752952387
 21
192.914814566
 31
0.0
  0
LINE
  5
231
330
1F
100
AcDbEntity
  8
0
  6
Continuous
 62
     3
100
AcDbLine
 10
418.8
 20
190.5
 30
0.0
 11
452.2
 21
190.5
 31
0.0
  0
LINE
  5
232
330
1F
100
AcDbEntity
  8
0
  6
Continuous
 62
     3
100
AcDbLine
 10
450.2
 20
190.5
 30
0.0
 11
450.847047613
 21
192.914814566
 31
0.0
  0
LINE
  5
233
330
1F
100
AcDbEntity
  8
0
  6
Continuous
 62
     3
100
AcDbLine
 10
450.2
 20
190.5
 30
0.0
 11
449.552952387
 21
192.914814566
 31
0.0
  0
LINE
  5
234
330
1F
100
AcDbEntity
  8
0
  6
Continuous
 62
     3
100
AcDbLine
 10
450.2
 20
190.5
 30
0.0
 11
450.2
 21
242.5
 31
0.0
  0
LINE
  5
235
330
1F
100
AcDbEntity
  8
0
  6
Continuous
 62
     3
100
AcDbLine
 10
433.4
 20
190.5
 30
0.0
 11
433.4
 21
222.5
 31
0.0
  0
LINE
  5
236
330
1F
100
AcDbEntity
  8
0
  6
Continuous
 62
     3
100
AcDbLine
 10
480.473803806
 20
210.350772855
 30
0.0
 11
480.473803806
 21
220.050772855
 31
0.0
  0
LINE
  5
237
330
1F
100
AcDbEntity
  8
0
  6
Continuous
 62
     3
100
AcDbLine
 10
480.473803806
 20
218.050772855
 30
0.0
 11
482.888618371
 21
217.403725242
 31
0.0
  0
LINE
  5
238
330
1F
100
AcDbEntity
  8
0
  6
Continuous
 62
     3
100
AcDbLine
 10
480.473803806
 20
218.050772855
 30
0.0
 11
482.888618371
 21
218.697820467
 31
0.0
  0
LINE
  5
239
330
1F
100
AcDbEntity
  8
0
  6
Continuous
 62
     3
100
AcDbLine
 10
495.473803806
 20
218.050772855
 30
0.0
 11
493.05898924
 21
218.697820467
 31
0.0
  0
LINE
  5
23A
330
1F
100
AcDbEntity
  8
0
  6
Continuous
 62
     3
100
AcDbLine
 10
495.473803806
 20
218.050772855
 30
0.0
 11
493.05898924
 21
217.403725242
 31
0.0
  0
LINE
  5
23B
330
1F
100
AcDbEntity
  8
0
  6
Continuous
 62
     3
100
AcDbLine
 10
495.473803806
 20
209.650772855
 30
0.0
 11
495.473803806
 21
220.050772855
 31
0.0
  0
LINE
  5
23C
330
1F
100
AcDbEntity
  8
0
  6
Continuous
 62
     3
100
AcDbLine
 10
480.473803806
 20
218.050772855
 30
0.0
 11
495.473803806
 21
218.050772855
 31
0.0
  0
MTEXT
  5
23D
330
1F
100
AcDbEntity
  8
0
  6
Continuous
 62
     3
100
AcDbMText
 10
486.023803806
 20
219.050772855
 30
0.0
 40
3.0
 41
7.8012
 71
     7
 72
     1
  1
\T1.167;\W0.600;１５
  7
KANJI3
 73
     1
 44
1.0
  0
LINE
  5
23E
330
1F
100
AcDbEntity
  8
0
  6
Continuous
 62
     3
100
AcDbLine
 10
495.473803806
 20
209.650772855
 30
0.0
 11
495.473803806
 21
219.350772855
 31
0.0
  0
LINE
  5
23F
330
1F
100
AcDbEntity
  8
0
  6
Continuous
 62
     3
100
AcDbLine
 10
495.473803806
 20
218.050772855
 30
0.0
 11
497.888618371
 21
217.403725242
 31
0.0
  0
LINE
  5
240
330
1F
100
AcDbEntity
  8
0
  6
Continuous
 62
     3
100
AcDbLine
 10
495.473803806
 20
218.050772855
 30
0.0
 11
497.888618371
 21
218.697820467
 31
0.0
  0
LINE
  5
241
330
1F
100
AcDbEntity
  8
0
  6
Continuous
 62
     3
100
AcDbLine
 10
510.473803806
 20
218.050772855
 30
0.0
 11
508.05898924
 21
218.697820467
 31
0.0
  0
LINE
  5
242
330
1F
100
AcDbEntity
  8
0
  6
Continuous
 62
     3
100
AcDbLine
 10
510.473803806
 20
218.050772855
 30
0.0
 11
508.05898924
 21
217.403725242
 31
0.0
  0
LINE
  5
243
330
1F
100
AcDbEntity
  8
0
  6
Continuous
 62
     3
100
AcDbLine
 10
495.473803806
 20
218.050772855
 30
0.0
 11
510.473803806
 21
218.050772855
 31
0.0
  0
MTEXT
  5
244
330
1F
100
AcDbEntity
  8
0
  6
Continuous
 62
     3
100
AcDbMText
 10
501.023803806
 20
219.050772855
 30
0.0
 40
3.0
 41
7.8012
 71
     7
 72
     1
  1
\T1.167;\W0.600;１５
  7
KANJI3
 73
     1
 44
1.0
  0
LINE
  5
245
330
1F
100
AcDbEntity
  8
0
  6
Continuous
 62
     3
100
AcDbLine
 10
510.473803806
 20
210.504990865
 30
0.0
 11
510.473803806
 21
219.350772855
 31
0.0
  0
LINE
  5
246
330
1F
100
AcDbEntity
  8
0
  6
Continuous
 62
     3
100
AcDbLine
 10
406.0
 20
179.2
 30
0.0
 11
417.7
 21
179.2
 31
0.0
  0
MTEXT
  5
247
330
1F
100
AcDbEntity
  8
0
  6
Continuous
 62
     3
100
AcDbMText
 10
406.0
 20
180.2
 30
0.0
 40
3.0
 41
23.3982
 71
     7
 72
     1
  1
\T1.111;\W0.900;２－φ９
  7
KANJI5
 73
     1
 44
1.0
  0
LINE
  5
249
330
1F
100
AcDbEntity
  8
0
  6
Continuous
 62
     3
100
AcDbLine
 10
395.5
 20
202.8
 30
0.0
 11
395.890440178
 21
200.330676921
 31
0.0
  0
LINE
  5
24A
330
1F
100
AcDbEntity
  8
0
  6
Continuous
 62
     3
100
AcDbLine
 10
395.5
 20
202.8
 30
0.0
 11
397.072792653
 21
200.856723573
 31
0.0
  0
LINE
  5
24B
330
1F
100
AcDbEntity
  8
0
  6
Continuous
 62
     3
100
AcDbLine
 10
395.5
 20
202.8
 30
0.0
 11
406.0
 21
179.2
 31
0.0
  0
MTEXT
  5
24C
330
1F
100
AcDbEntity
  8
0
  6
Continuous
 62
     3
100
AcDbMText
 10
472.495345461
 20
231.07368732
 30
0.0
 40
5.0
 41
125.388
 71
     7
 72
     1
  1
\T1.111;\W0.540;３７１０３－２２０６－０００ＦＬ　＜３Ｍ＞
  7
KANJI4
 73
     1
 44
1.0
  0
ARC
  5
24D
330
1F
100
AcDbEntity
  8
2
  6
Continuous
 62
     2
100
AcDbCircle
 10
413.259
 20
206.503015
 30
0.0
 40
16.0
100
AcDbArc
 50
9.054709713
 51
90.0
  0
ARC
  5
24E
330
1F
100
AcDbEntity
  8
2
  6
Continuous
 62
     2
100
AcDbCircle
 10
413.259
 20
206.503015
 30
0.0
 40
16.0
100
AcDbArc
 50
270.0
 51
351.721558647
  0
ARC
  5
250
330
1F
100
AcDbEntity
  8
2
  6
LTYPE3
 62
     2
100
AcDbCircle
 10
413.259
 20
206.503015
 30
0.0
 40
4.5
100
AcDbArc
 50
334.151944366
 51
30.064063885
  0
ARC
  5
251
330
1F
100
AcDbEntity
  8
2
  6
LTYPE3
 62
     2
100
AcDbCircle
 10
413.259
 20
206.503015
 30
0.0
 40
4.5
100
AcDbArc
 50
151.193899041
 51
205.250147904
  0
ARC
  5
252
330
1F
100
AcDbEntity
  8
2
  6
LTYPE3
 62
     2
100
AcDbCircle
 10
393.259
 20
206.503015
 30
0.0
 40
4.5
100
AcDbArc
 50
332.625801904
 51
29.907927504
  0
ARC
  5
253
330
1F
100
AcDbEntity
  8
2
  6
Continuous
 62
     2
100
AcDbCircle
 10
413.259
 20
206.503015
 30
0.0
 40
4.5
100
AcDbArc
 50
37.348266049
 51
143.665626591
  0
ARC
  5
254
330
1F
100
AcDbEntity
  8
2
  6
Continuous
 62
     2
100
AcDbCircle
 10
413.259
 20
206.503015
 30
0.0
 40
4.5
100
AcDbArc
 50
212.833933443
 51
327.811359905
  0
ARC
  5
255
330
1F
100
AcDbEntity
  8
2
  6
Continuous
 62
     2
100
AcDbCircle
 10
393.259
 20
206.503015
 30
0.0
 40
4.5
100
AcDbArc
 50
243.6122
 51
323.750729433
  0
ARC
  5
256
330
1F
100
AcDbEntity
  8
2
  6
Continuous
 62
     2
100
AcDbCircle
 10
393.259
 20
206.503015
 30
0.0
 40
4.5
100
AcDbArc
 50
39.584009754
 51
116.3878
  0
MTEXT
  5
257
330
1F
100
AcDbEntity
  8
0
  6
Continuous
 62
     1
100
AcDbMText
 10
79.6
 20
126.33
 30
0.0
 40
10.0
 41
116.97
 71
     7
 72
     1
  1
\T1.133;\W0.750;ＳＵＣ－１９９
  7
KANJI6
 73
     1
 44
1.0
  0
ENDSEC
  0
SECTION
  2
OBJECTS
  0
DICTIONARY
  5
C
330
0
100
AcDbDictionary
280
     0
281
     1
  3
ACAD_GROUP
350
D
  3
ACAD_LAYOUT
350
1A
  3
ACAD_MLINESTYLE
350
17
  3
ACAD_PLOTSETTINGS
350
19
  3
ACAD_PLOTSTYLENAME
350
E
  0
DICTIONARY
  5
D
102
{ACAD_REACTORS
330
C
102
}
330
C
100
AcDbDictionary
280
     0
281
     1
  0
DICTIONARY
  5
1A
102
{ACAD_REACTORS
330
C
102
}
330
C
100
AcDbDictionary
280
     0
281
     1
  3
Model
350
22
  3
ﾚｲｱｳﾄ1
350
1E
  3
ﾚｲｱｳﾄ2
350
26
  0
LAYOUT
  5
22
102
{ACAD_REACTORS
330
1A
102
}
330
1A
100
AcDbPlotSettings
  1

  2

  4

  6

 40
0.0
 41
0.0
 42
0.0
 43
0.0
 44
0.0
 45
0.0
 46
0.0
 47
0.0
 48
0.0
 49
0.0
140
0.0
141
0.0
142
1.0
143
1.0
 70
  1712
 72
     0
 73
     0
 74
     0
  7

 75
     0
147
1.0
148
0.0
149
0.0
100
AcDbLayout
  1
Model
 70
     1
 71
     0
 10
0.0
 20
0.0
 11
0.0
 21
0.0
 12
0.0
 22
0.0
 32
0.0
 14
0.0
 24
0.0
 34
0.0
 15
0.0
 25
0.0
 35
0.0
146
0.0
 13
0.0
 23
0.0
 33
0.0
 16
1.0
 26
0.0
 36
0.0
 17
0.0
 27
1.0
 37
0.0
 76
     0
330
1F
331
0
345
0
346
0
  0
LAYOUT
  5
1E
102
{ACAD_REACTORS
330
1A
102
}
330
1A
100
AcDbPlotSettings
  1

  2

  4

  6

 40
0.0
 41
0.0
 42
0.0
 43
0.0
 44
0.0
 45
0.0
 46
0.0
 47
0.0
 48
0.0
 49
0.0
140
0.0
141
0.0
142
1.0
143
1.0
 70
   688
 72
     0
 73
     0
 74
     5
  7

 75
    16
147
1.0
148
0.0
149
0.0
100
AcDbLayout
  1
ﾚｲｱｳﾄ1
 70
     1
 71
     1
 10
0.0
 20
0.0
 11
0.0
 21
0.0
 12
0.0
 22
0.0
 32
0.0
 14
0.0
 24
0.0
 34
0.0
 15
0.0
 25
0.0
 35
0.0
146
0.0
 13
0.0
 23
0.0
 33
0.0
 16
1.0
 26
0.0
 36
0.0
 17
0.0
 27
1.0
 37
0.0
 76
     0
330
1B
331
0
345
0
346
0
  0
LAYOUT
  5
26
102
{ACAD_REACTORS
330
1A
102
}
330
1A
100
AcDbPlotSettings
  1

  2

  4

  6

 40
0.0
 41
0.0
 42
0.0
 43
0.0
 44
0.0
 45
0.0
 46
0.0
 47
0.0
 48
0.0
 49
0.0
140
0.0
141
0.0
142
1.0
143
1.0
 70
   688
 72
     0
 73
     0
 74
     5
  7

 75
    16
147
1.0
148
0.0
149
0.0
100
AcDbLayout
  1
ﾚｲｱｳﾄ2
 70
     1
 71
     2
 10
0.0
 20
0.0
 11
0.0
 21
0.0
 12
0.0
 22
0.0
 32
0.0
 14
0.0
 24
0.0
 34
0.0
 15
0.0
 25
0.0
 35
0.0
146
0.0
 13
0.0
 23
0.0
 33
0.0
 16
1.0
 26
0.0
 36
0.0
 17
0.0
 27
1.0
 37
0.0
 76
     0
330
23
331
0
345
0
346
0
  0
DICTIONARY
  5
17
102
{ACAD_REACTORS
330
C
102
}
330
C
100
AcDbDictionary
280
     0
281
     1
  3
Standard
350
18
  0
MLINESTYLE
  5
18
102
{ACAD_REACTORS
330
17
102
}
330
17
100
AcDbMlineStyle
  2
STANDARD
 70
     0
  3

 62
   256
 51
90.0
 52
90.0
 71
     2
 49
0.5
 62
   256
  6
ByLayer
 49
-0.5
 62
   256
  6
ByLayer
  0
DICTIONARY
  5
19
102
{ACAD_REACTORS
330
C
102
}
330
C
100
AcDbDictionary
280
     0
281
     1
  0
ACDBDICTIONARYWDFLT
  5
E
330
C
100
AcDbDictionary
281
     0
  3
Normal
350
F
100
AcDbDictionaryWithDefault
340
F
  0
ACDBPLACEHOLDER
  5
F
102
{ACAD_REACTORS
330
E
102
}
330
E
  0
ENDSEC
  0
EOF
